Nothingface - Sleeper Chords & Tabs

 

Sleeper Chords & Tabs

Nothingface Chords & Tabs

Version: 1 Type: Tab 0 ratings
1 star 2 stars 3 stars 4 stars 5 stars
comments

Sleeper Tab

Song: “Sleeper”
Artist: Nothingface
Album: Everyday Atrocity
Transcribed By: Bryan Bramlett (bryanmb87@aol.com)

Tuning: 1/2 Step Down, Drop D

VERSE: (clean)
|----------------------------------------------------------|
|----------------------------------------------------------|
|----------------------------------------------------4-----|
|---1-1-1-1-2---1-1---4-5-4----1-1-1-1-2---1-1---4-5---5-0-|
|----------------------------------------------------------|
|-2-----------2-----0--------2-----------2-----0-----------|

BRIDGE:
|----------------------------------|
|--------3-------------------------|
|----------4-----------------------|
|---4-5------5------4-4-5--5-4-5---|
|----------------------------------|
|-2------------0--2--------------0-|
[ Tab from: http://www.guitartabs.cc/tabs/n/nothingface/sleeper_tab.html ]
INTERLUDE:
|--------------------------|
|-8-7----11-10----------10-|
|-----7--------12-11-12----|
|--------------------------|
|--------------------------|
|--------------------------|

CHORUS: (distortion) (* - play 1st time only)
|-------------------------------------------------------------|
|-------------------------------------------------------------|
|-------------------------------------------------------------|
|*0-0*-0-7\6-0-0--0-7\6-0-3-4-6-0--0-7/6-0-0--0-7/6-0-3-4-1-0-|
|*0-0*-0-7\6-0-0--0-7\6-0-3-4-6-0--0-7/6-0-0--0-7/6-0-3-4-1-0-|
|*0-0*-0-7\6-0-0--0-7\6-0-3-4-6-0--0-7/6-0-0--0-7/6-0-3-4-1-0-|
PM                      . . .                         . . . 

OUTRO
|-------------|
|-------------|
|-------------|
|-0-0-3-4-1-0-|
|-0-0-3-4-1-0-|
|-0-0-3-4-1-0-|

Comments