Nothingface - One Thing Chords & Tabs

 

One Thing Chords & Tabs

Nothingface Chords & Tabs

Version: 1 Type: Tab 0 ratings
1 star 2 stars 3 stars 4 stars 5 stars
comments

One Thing Tab

   
Song: "One Thing"
Artist: Nothingface
Album: Pacifier
Transcribed By: Bryan Bramlett (bryanmb87@aol.com)

Tuning: 1/2 Step Down, Drop D

INTRO:
|------------------|
|------------------|
|------------------|
|----333---333--33-|
|-222---222---22---|
|------------------|

BRIDGE:
|--------------------------|
|--------------------------|
|--------------------------|
|----101010---101010--1010-|
|-999-8-8-8999-8-8-899-8-8-|
|-999------999------99-----|

CHORUS B:
|--------------------------|
|--------------------------|
|--------------------------|
|----101010---101010--1010-|
|-999-8-8-8999-8-8-899-8-8-|
|-999------999------99-----|
PM...
[ Tab from: http://www.guitartabs.cc/tabs/n/nothingface/one_thing_tab.html ]
FILL:
|---|
|---|
|---|
|-9-|
|-9-|
|-9-|

VERSE:
|---------------------------|
|---------------------------|
|---4----4-4-----2-4--4-4-2-|
|-4---44--4-4--3-----3-3----|
|---------------------------|
|---------------------------|

CHORUS:
|------------------------------------|
|------------------------------------|
|------------------------------------|
|---9-8---9-8---9-8---9-8------------|
|-9-7-6-9-7-6-9-7-6-9-7-6-9-10-12-10-|
|-9-----9-----9-----9-----9-10-12-10-|

CHORUS B:
|------------------------------------|
|------------------------------------|
|------------------------------------|
|---9-8---9-8---9-8---9-8------------|
|-9-7-6-9-7-6-9-7-6-9-7-6-9-10-12-10-|
|-9-----9-----9-----9-----9-10-12-10-|
PM  . .   . .   . .   . .

Comments