Nothingface - Make Your Own Bones Chords & Tabs

 

Make Your Own Bones Chords & Tabs

Nothingface Chords & Tabs

Version: 2 Type: Tab 0 ratings
1 star 2 stars 3 stars 4 stars 5 stars
comments

Make Your Own Bones Tab

Song: "Make Your Own Bones"
Artist: Nothingface
Album: Violence
Transcribed By: Bryan Bramlett (bryanmb87@aol.com)

Tuning: 1/2 Step Down, Drop D

INTRO: (guitar 1)
|---------------------------------|
|--10-9-9-99-10-9-9-9-10-9-9------|
|----------------------------7-6--|
|---------------------------------|
|---------------------------------|
|---------------------------------|

INTRO: (guitar 2)
|------------------------|
|------------------------|
|------------------------|
|--0---4444333322221111--|
|--0---4444333322221111--|
|--0---4444333322221111--|
PM     ................

RIFF 1:
|---------------------------------------------------|
|---------------------------------------------------|
|---------------------6-7---------------------------|
|--0--0-6/3-0-0-6/3-0-6-7--0--0-6/3-0---------------|
|--0--0-6/3-0-0-6/3-0------0--0-6/3-0---------------|
|--0--0-6/3-0-0-6/3-0------0--0-6/3-0-666655553333--|
PM                                    ............

|-------------------------------------------------------|
|-------------------------------------------------------|
|---------------------6-7-------------------------------|
|--0--0-6/3-0-0-6/3-0-6-7--0--0-6/3-0-------------------|
|--0--0-6/3-0-0-6/3-0------0--0-6/3-0-------------------|
|--0--0-6/3-0-0-6/3-0------0--0-6/3-0-1010101066665555--|
PM                                    ................
[ Tab from: http://www.guitartabs.cc/tabs/n/nothingface/make_your_own_bones_tab_ver_2.html ]
FILL 1:
|-------------|
|--6-6-7-3-3--|
|--5-5-6-2-2--|
|--3-3-4-0-0--|
|--3-3-4-0-0--|
|--3-3-4-0-0--|

VERSE:
|-------------------------------------------------------|
|-------------------------------------------------------|
|-------------------------------------------------------|
|--3-1-0-00-3-1-0-3-0-3/6-66--3-1-0-00-3-1-0-6-3-0-111--|
|--3-1-0-00-3-1-0-3-0-3/6-66--3-1-0-00-3-1-0-6-3-0-111--|
|--3-1-0-00-3-1-0-3-0-3/6-66--3-1-0-00-3-1-0-6-3-0-111--|
PM       ..                         ..

|---------------------------------------------------|
|---------------------------------------------------|
|---------------------------------------------------|
|--3-1-0-00-3-1-0-3-0-3/6-66--3-1-0-00--------------|
|--3-1-0-00-3-1-0-3-0-3/6-66--3-1-0-00-87-76-XX-XX--|
|--3-1-0-00-3-1-0-3-0-3/6-66--3-1-0-00-87-76-XX-XX--|
PM       ..                         ..

CHORUS:
|--------------------------------------------------|
|--------------------------------------------------|
|--------------------------------------------------|
|--------------------------------------------------|
|--0-7-6-0-7-6-0-7-10-0-7-10-0-7-10-0-10-9-0-10-9--|
|--0-7-6-0-7-6-0-7-10-0-7-10-0-7-10-0-10-9-0-10-9--|

|------------------------------|
|------------------------------|
|------------------------------|
|------------------------------|
|--0-10-13-0-10-13-0-10-13-13--|
|--0-10-13-0-10-13-0-10-13-13--|
Comments