Nothingface - I Diablo Chords & Tabs

 

I Diablo Chords & Tabs

Nothingface Chords & Tabs

Version: 1 Type: Tab 0 ratings
1 star 2 stars 3 stars 4 stars 5 stars
comments

I Diablo Tab

   
Song: “I, Diablo”
Artist: Nothingface
Album: Everyday Atrocity
Transcribed By: Bryan Bramlett (bryanmb87@aol.com)

Tuning: 1/2 Step Down, Drop D

BRIDGE:
|------------------|
|------------------|
|-4-2--8-8-7-7-5-5-|
|-X-X--X-X-X-X-X-X-|
|-2-0--6-6-5-5-3-3-|
|------------------|

MAIN RIFF: (elevens not ones)
|-----------------------------------|
|-----------------------------------|
|----------101010101010999999777777-|
|-111111999101010101010999999777777-|
|-111111999-8-8-8-8-8-8777777555555-|
|-111111999-------------------------|

BRIDGE B:
|------------|
|------------|
|------------|
|-11-11-11-9-|
|-11-11-11-9-|
|-11-11-11-9-|

VERSE:
|----------------------|
|----------------------|
|----------10--7779-97-|
|-1111119-910--7779-97-|
|-1111119-9-8--5557-75-|
|-1111119-9------------|
PM             ...  .
[ Tab from: http://www.guitartabs.cc/tabs/n/nothingface/i_diablo_tab.html ]
CHORUS:
|----------------------------------|
|----------------------------------|
|-44447777777799991010101010101010-|
|-44447777777799991010101010101010-|
|-2222555555557777-8-8-8-8-8-8-8-8-|
|----------------------------------|

INTERLUDE:
|-----------------------------------------|
|-----------------------------------------|
|------------8--8------8------8-----------|
|-9----99-99-9----9-7----9-7----9-7-99-99-|
|-9----99-99-9----------------------99-99-|
|-9----99-99-9----------------------99-99-|

INTERLUDE 2: (don't think this part's right)
|-----------------------|
|-----------------------|
|-----------------------|
|-----------------------|
|-2-3-2-2-5-2-2-3-2-2-5-|
|-2-3-2-------2-3-2-----|

INTERLUDE 3:
|------------------------------------|
|------------------------------------|
|------------------------------------|
|------------------------------------|
|-12-9-7-9-7-9-12-9-7-9-7-9-12-9-7-9-|
|-12-9-7-9-7-9-12-9-7-9-7-9-12-9-7-9-|

Comments