Nothingface - I Am Him Chords & Tabs

 

I Am Him Chords & Tabs

Nothingface Chords & Tabs

Version: 1 Type: Tab 0 ratings
1 star 2 stars 3 stars 4 stars 5 stars
comments

I Am Him Tab

   
Song: "I Am Him"
Artist: Nothingface
Album: Skeletons
Transcribed By: Bryan Bramlett (bryanmb87@aol.com)

Tuning: Drop D, Down 2 Steps (A#,F,A#,D#,G,C)

INTRO:
|-----------------------------------------------------------|
|-----------------------------------------------------------|
|-----------------------------------------------------------|
|-----------------------------------------------------------|
|-----------------------------------------------------------|
|-0-0-0--0-0-3-3-3-3--3-3-0-0-0-0--0-0-3-3-3-3--5-5-5-5-0-0-|
pm. .    . . . . .    . . . . .    . . . . .            .

|-----------------------------------------------------------|
|-----------------------------------------------------------|
|-----------------------------------------------------------|
|-----------------------------------------------------------|
|-----------------------------------------------------------|
|-0-0-3-3-3-3--3-3-3-5-5-5-7-7-7-7-7-7-10-10-10-10-10-10-10-|
pm. . . . .          . . . . . . . . . .. .. ..

VERSE:
|-----------------------------------------------------------------|
|-----------------------------------------------------------------|
|-----------------------------------------------------------------|
|-----------------------------------------------------------------|
|---------------2-2-2-2-2-2-2-2-2---------------3-3-3-3-3-3-3-3-3-|
|-0-0-0-3-3-3-3-------------------0-0-0-3-3-3-3-------------------|
pm. . . . . . . . . . . . . . . . . . . . . . . . . . . . . . . .
[ Tab from: http://www.guitartabs.cc/tabs/n/nothingface/i_am_him_tab.html ]
|-----------------------------------------------------------------|
|-----------------------------------------------------------------|
|-----------------------------------------------------------------|
|-----------------------------------------------------------------|
|---------------2-2-2-2-2-2-2-2-2-----3-----3-3-3-----3-----3-3-3-|
|-0-0-0-3-3-3-3-------------------3-3-3-3-3-3-3-3-3-3-3-3-3-3-3-3-|
pm. . . . . . . . . . . . . . . . . .   . .       . .   . .

CHORUS:
|------------------------------------------------------------|
|------------------------------------------------------------|
|------------------------------------------------------------|
|-10--12-12-10-10--12-12-10-/13-13--10--12-12-9-9--6-6-3-3-3-|
|-10--12-12-10-10--12-12-10-/13-13--10--12-12-9-9--6-6-3-3-3-|
|-10--12-12-10-10--12-12-10-/13-13--10--12-12-9-9--6-6-3-3-3-|

INTERLUDE:
|-----------------------------------------------------------|
|-----------------------------------------------------------|
|-----------------------------------------------------------|
|-----------------------------------------------------------|
|-----------------------------------------------------------|
|-0-0-0--0-0-3-3-3-3--3-3-0-0-0-0--0-0-3-3-3-3--5-5-5-5-0-0-|

|---------------------------------------------------|
|---------------------------------------------------|
|------------------------------------------0-0------|
|------------------------0-----0-----0---0------4-4-|
|----------------------0-----0-----0---3------------|
|-0-0-3-3-3-3--3-3-3-5-----7-----7------------------|

INTERLUDE FILL:
|----------------------------------------------------------------|
|----------------------------------------------------------------|
|----------------------------------------------------------------|
|-5-5-5-7-7-7-7-7-7-10-10-10-10-10-10-10-10-10-10-10-10-10-10-10-|
|-5-5-5-7-7-7-7-7-7-10-10-10-10-10-10-10-10-10-10-10-10-10-10-10-|
|-5-5-5-7-7-7-7-7-7-10-10-10-10-10-10-10-10-10-10-10-10-10-10-10-|
Comments