Nothingface - Here Come The Butchers Chords & Tabs

 

Here Come The Butchers Chords & Tabs

Nothingface Chords & Tabs

Version: 1 Type: Tab 0 ratings
1 star 2 stars 3 stars 4 stars 5 stars
comments

Here Come The Butchers Tab

   
Song: "Here Come the Butchers"
Artist: Nothingface
Album: Skeletons
Transcribed By: Bryan Bramlett (bryanmb87@aol.com)

Tuning: Drop D, Down 2 Steps (A#,F,A#,D#,G,C)

INTRO:
|---------|
|---------|
|-9-9-9-9-|
|-X-X-X-X-|
|-7-7-7-7-|
|---------|

VERSE:
|-------------------------|
|-------------------------|
|-------------------------|
|-5-5-3-5--3-5-5-5-3-5--3-|
|-5-5-3-5--3-5-5-5-3-5--3-|
|-5-5-3-5--3-5-5-5-3-5--3-|

CHORUS:
|-------------------------|
|-------------------------|
|-------------------------|
|-2-2-0-2--0-2-2-2-0-2--0-|
|-2-2-0-2--0-2-2-2-0-2--0-|
|-2-2-0-2--0-2-2-2-0-2--0-|

BRIDGE:
|---------------------|
|---------------------|
|---------------------|
|-2-2-2-3-3-3-5-5-5-6-|
|-2-2-2-3-3-3-5-5-5-6-|
|-2-2-2-3-3-3-5-5-5-6-|
pm  . .   . .   . .

BRIDGE 2:
|-------------------------------------------------------------------|
|-------------------------------------------------------------------|
|-------------------------------------------------------------------|
|-6\-0--6-5-4--4-6-10-10-10\3-3-3--6\-0--6-5-4--4-6-10-10--0-3--0-6-|
|-6\-0--6-5-4--4-6-10-10-10\3-3-3--6\-0--6-5-4--4-6-10-10--0-3--0-6-|
|-6\-0--6-5-4--4-6-10-10-10\3-3-3--6\-0--6-5-4--4-6-10-10--0-3--0-6-|
pm                                                         .    .
[ Tab from: http://www.guitartabs.cc/tabs/n/nothingface/here_come_the_butchers_tab.html ]
FILL:
|---|
|---|
|---|
|-0-|
|-0-|
|-0-|

INTERLUDE:
|--------------------------------------------------------------|
|--------------------------------------------------------------|
|------------5/7-----7/8----8/10-----10/11-----10/11-----14\13-|
|---------0--X-X-----X-X----X-X-------X-X-------X-X-------X-X--|
|-3-2-1-2-0--3/5-----5/6----6/8-------8/9-------8/9------12\11-|
|-3-2-1-2-0------0-0-----0-0-----0-0-------0-0-------0-0-------|
pm. . . .        . .     . .     . .       . .       . .

INTERLUDE 2:
|-------------------------------------------------------|
|-------------------------------------------------------|
|---------------------13-13---------13-13---------13-13-|
|---------0-0----------X--X----------X--X----------X--X-|
|-3-2-1-2-0-0-0-0-0-0-11-11-0-0-0-0-11-11-0-0-0-0-11-11-|
|-3-2-1-2-0-0-0-0-0-0-------0-0-0-0-------0-0-0-0-------|
pm. . . .     . . . .       . . . .       . . . . 

INTERLUDE 3:
|------------------------------------------------------------------|
|------------------------------------------------------------------|
|------------------------------------------------------------------|
|------------------------------------------------------------------|
|-3-2-1-2--5-5-3-5--3-5-5-5-3-5--3-5-5-3-5--3-5--------------------|
|-3-2-1-2--5-5-3-5--3-5-5-5-3-5--3-5-5-3-5--3-5-<3><3><3><3><3><3>-|
pm. . . .

OUTRO:
|-------|
|-------|
|-------|
|-0-2-1-|
|-0-2-1-|
|-0-2-1-|
Comments