Nothingface - Everlasting Godstopper Chords & Tabs

 

Everlasting Godstopper Chords & Tabs

Nothingface Chords & Tabs

Version: 1 Type: Tab 0 ratings
1 star 2 stars 3 stars 4 stars 5 stars
comments

Everlasting Godstopper Tab

   
Song: "Everlasting Godstopper"
Artist: Nothingface
Album: Violence
Transcribed By: Bryan Bramlett (bryanmb87@aol.com)

Tuning: 1/2 Step Down, Drop D

INTRO:
|---------------------------------------------------------------------|
|---------------------------------------------------------------------|
|---------------------------------------------------------------------|
|---------------------------------------------------------------------|
|---------------------------------------------------------------------|
|-6000600460460764-60070010007006067-6000600460460764-6667772221110-5-|

FILL 1:
|---------------|
|---------------|
|---------------|
|--6-7-2-1-0-5--|
|--6-7-2-1-0-5--|
|--6-7-2-1-0-5--|

INTRO B:
|--------------------------------------------------------------------|
|--------------------------------------------------------------------|
|--------------------------------------------------------------------|
|--------------------------------------------------------------------|
|-6000600460460764-60070010007006067-6000600460460764-66677722211105-|
|-6000600460460764-60070010007006067-6000600460460764-66677722211105-|

VERSE:
|---------------------------------------------------------------------|
|---------------------------------------------------------------------|
|---------------------------------------------------------------------|
|---------------------------------------------------------------------|
|-6---6--46046-764-6--7--10--7--6067-6---6--46046-764-6--7--2--1--0-5-|
|-6000600460460764-60070010007006067-6000600460460764-6667772221110-5-|
PM ... ..     .     .. ..  .. ..      ... ..     .     .. .. .. ..

BRIDGE:
|--------------------------------------------|
|--------------------------------------------|
|--------------------------------------------|
|--------------------------------------------|
|--335-335-335-335-3353-556-556-55-66655533--|
|--335-335-335-335-3353-556-556-55-66655533--|
PM                                 ........
[ Tab from: http://www.guitartabs.cc/tabs/n/nothingface/everlasting_godstopper_tab.html ]
|----------------------------------------------|
|----------------------------------------------|
|----------------------------------------------|
|----------------------------------------------|
|--335-335-335-335-3353-556-556-55-6668881010--|
|--335-335-335-335-3353-556-556-55-6668881010--|
PM                                 ..........

CHORUS:
|------------------------------------------------|
|------------------------------------------------|
|-1111111111111111777755554444444477779999-------|
|--9-9-9-9-9-9-9-9555533332222222255557777-4-5-7-|
|--9-9-9-9-9-9-9-9555533332222222255557777-4-5-7-|
|--9-9-9-9-9-9-9-9555533332222222255557777-4-5-7-|

|-----------------------------------------------------------------|
|-----------------------------------------------------------------|
|1111111111111111141414141515151516161616161616161717171717171717-|
|-9-9-9-9-9-9-9-9121212121313131314141414141414141515151515151515-|
|-9-9-9-9-9-9-9-9121212121313131314141414141414141515151515151515-|
|-9-9-9-9-9-9-9-9121212121313131314141414141414141515151515151515-|

|-----------------------|
|-----------------------|
|-18-1919-17------------|
|-16-1717-15------------|
|-16-1717-15------------|
|-16-1717-15--33322211--|
PM            ........

INTERLUDE: (guitar 1)
|------------------------------|
|------------------------------|
|------------------------------|
|-0000-00002-0000-0006666h76\4-|
|-0000-00002-0000-0006666h76\4-|
|-0000-00002-0000-0006666h76\4-|

INTERLUDE B: (guitar 2)
|--------------------|
|--------------------|
|--14141414-13131313-|
|---X-X-X-X--X-X-X-X-|
|--12121212-11111111-|
|--------------------|

INTERLUDE B2: (guitar 2)
|---------------------------------------------------|
|---------------------------------------------------|
|-11111111-1111111313-11111111-111111131313/1413\11-|
|--X-X-X-X--X-X-X-X-X--X-X-X-X--X-X-X-X-X-X--X-X-X--|
|--9-9-9-9--9-9-91111--9-9-9-9--9-9-9111111/1215\9--|
|---------------------------------------------------|

INTERLUDE FILL: (guitar 1)
|---------------------------------|
|---------------------------------|
|---------------------------------|
|---------------------------------|
|-7-6-4-7-6-4-7-6-4-7-6-4-7p6-7p6-|
|-7-6-4-7-6-4-7-6-4-7-6-4-7p6-7p6-|
PM. . . . . . . . .

INTERLUDE 2:
|-------------------------------------------------------|
|-------------------------------------------------------|
|-----------------------------------------0-----0-----0-|
|-----0-----0-----0-----0-----0-----0-------------------|
|---7-----7-----7-----7-----7-----7-----7-----7-----7---|
|-0-----3-----5-----6-----7-----3-----5-----4-----6-----|

Comments