Nothingface - Down In Flames Chords & Tabs

 

Down In Flames Chords & Tabs

Nothingface Chords & Tabs

Version: 1 Type: Tab 0 ratings
1 star 2 stars 3 stars 4 stars 5 stars
comments

Down In Flames Tab

   
Band: Nothingface
Song: Down In Flames

Tabber: John Cukras
Email: riffreaper@yahoo.com

Tuning: Drop D

911 - Was a scam
http://pixla.px.cz/pentagon.swf

Riff 1:
E--------------------------------------------------------------|
B--------------------------------------------------------------|
G--------------------------------------------------------------|
D-----------------------------33-55------------------3333-5555-|
A-00-00-00-00--11-0-11-0-11-0-11-33--------11-0-11-0-1111-3333-|
D-00-00-00-00--11-0-11-0-11-0------ x's 3--11-0-11-0-----------|  x's 2

[ Tab from: http://www.guitartabs.cc/tabs/n/nothingface/down_in_flames_tab.html ]
Riff 2: 13's, 12's
E-----------------------------------------|
B-----------------------------------------|
G-----------------------------------------|
D-----------------------------------------|
A-999999-888888-9999999-13131313-12121212-|
D-999999-888888-9999999-13131313-12121212-| x's 2

Riff 3:
E-------------------------------------------------|
B-------------------------------------------------|
G-------------------------------------------------|
D----------------55-77------------------5555-7777-|
A-33-0-33-0-33-0-33-55--------33-0-33-0-3333-5555-|
D-33-0-33-0-33-0------ x's 3--33-0-33-0-----------|

Riff 1

Riff 2

Riff 4:
E----------------------|
B----------------------|
G----------------------|
D----------------------|
A-11-0-11-0-11-0-22-44-|
D-11-0-11-0-11-0-22-44-| x's 4

Riff 5
E-------------------------|
B-------------------------|
G-------------------------|
D-------------------------|
A--------------------4444-|
D-1-222-1-222-1-2-11-4444-|  x's 4
pm. ... . ... . . .. 

Riff 1

Riff 4
Comments