Nothingface - Deprive Chords & Tabs

 

Deprive Chords & Tabs

Nothingface Chords & Tabs

Version: 1 Type: Tab 0 ratings
1 star 2 stars 3 stars 4 stars 5 stars
comments

Deprive Tab

   
Band: nothingface
Song: Deprive

Tabber: John Cukras
Email: riffreaper@yahoo.com

Tuning: C G C F A D

Riff 1:
D---------------------------------------------------|
A---------------------------------------------------|
F------------------------------2-2-2-2-2-2-2--------|
C------------------------------2-2-2-2-2-2-2--------|
G-000-000-000-000-000-000--1/2-0-0-0-0-0-0-0--------|
C-000-000-000-000-000-000--1/2--------------  x's 2-|
pm... ... ... ... ... ...
[ Tab from: http://www.guitartabs.cc/tabs/n/nothingface/deprive_tab.html ]
Riff 2:          A                                        B
D-----------------------------------------------|--------------------------------------------|
A-----------------------------------------------|--------------------------------------------|
F-----------------------------------------------|--------------------------------------------|
C---------7-555---------------7-555-------------|------7-555---------4-33--------------------|
G-000000--5-333--------000000-5-333-0-----------|---0--5-333---------2-11--------------------|
C-000000------- x's 3--000000-------0   x's 2---|---0------- x's 4--------3-2-1-3-2-1-3-2-1--|
pm......               ......                                             . . . . . . . . .

Riff 3:
D-------------------------------|
A-------------------------------|
F-------------------------------|
C----7/8-9/6----------4-33-4-33-|
G-0--5/6-7/4----------2-11-2-11-|
C-0---------  x's 8-------------|

Riff 1

Riff 2: A once , B once

Riff 3

Riff 4:
D---------------------------------------------------------------------------------------------------|
A---------------------------------------------------------------------------------------------------|
F---------------------------------------------------------------------------------------------------|
C---------------------------------------------------------------------------------------------------|
G-4-333-6-555-4-333-8-777-----------------------------------------4-333-6-555-4-333-8-777--------0--|
C-4-333-6-555-4-333-8-777 x's 4---4-333-6-555-4-333-8-777 x's 4---4-333-6-555-4-333-8-777 x's 4--0--|
pm                                . ... . ... . ... . ...

Riff 1

Riff 2: A once , B once

Riff 3
Comments