Nothingface - Communion Chords & Tabs

 

Communion Chords & Tabs

Nothingface Chords & Tabs

Version: 1 Type: Tab 0 ratings
1 star 2 stars 3 stars 4 stars 5 stars
comments

Communion Tab

Band: Nothingface
Song: Communion

Tabber: John Cukras
Email: riffreaper@yahoo.com

Tuning: Drop D

Vote Green
http://www.gp.org

Riff 1: Clean.     Part A                                     part B
E------------------------------------------------------|--------------------------------------------|
B------------------------------------------------------|--------------------------------------------|
G------------------7---------------------------2-------|------------------7-------------------------|
D---------4----------6---6-----------4--------0--------|---------4----------6---6----------4--------|
A---3---3---3---3------5-------3---3---3---3-0---------|---3---3---3---3------5------3---3---3---3--|
D-3---3-------3--------------3---3-------3------ x's 5-|-3---3-------3-------------3---3-------3----|

Riff 2:
E------------------------------|
B------------------------------|
G------------------------------|
D------------------------------|
A-3-3-3-3---3-333-5-55-2-------|
D-3-3-3-3---3-333-5-55-2 x's 4-|

Riff 1: part A x's 3 , Part B

Riff 2
[ Tab from: http://www.guitartabs.cc/tabs/n/nothingface/communion_tab.html ]
Riff 3: Clean.
E---------------------------------------------------------------------------------------------------|
B---------------------------------------------------------------------------------------------------|
G---------------------------------------------------------------------------------------------------|
D------------------------------------4--------4----4-----------------------------------------4------|
A-9-9-9-9/121212-101010-888-777----3---3----3----3---------9-9-9-9/121212-101010-888-777---3-----3--|
D--------------------------------3--------3----3--- x's 5--------------------------------3-----3----|

Riff 4:
E--------------------------------------------------------------------------------------------------------------|
B--------------------------------------------------------------------------------------------------------------|
G--------------------------------------------------------------------------------------------------------------|
D--------------------------------------------------------------------------------------------------------------|
A-3-3-3-3-3-3--0-00-5-555-3-33-7-777-5-33-------0----5-555-3-33-7-777-5-33--0-00-5-555-3---3---7---7---7-5-33--|
D-3-3-3-3-3-3--0-00-5-555-3-33-7-777-5-33 x's 2-0-00-5-555-3-33-7-777-5-33--0-00-5-555-3-0-3-0-7-0-7-0-7-5-33--|
pm                                                ..                                     .   .   .   .

Riff 4
Comments