Nothing To Gain - Without Warning Chords & Tabs

 

Without Warning Chords & Tabs

Nothing To Gain Chords & Tabs

Version: 1 Type: Tab 0 ratings
1 star 2 stars 3 stars 4 stars 5 stars
comments

Without Warning Tab

Without Warning
Nothing To Gain
5/13/04

Guitar Part

Intro   4x  pm		Distorted
ab  -------------------------------------------------------------------|
db  -------------------------------------------------------------------|
e    ------------------------------------------------------------------|
b    ------------------------------------------------------------------|
gb  -------------------------------------------------------------------|
b    ------0--0--0---7----0--0--0--7-h-5--0--5--h-7--0--7-0-0--3-------|

verse 4x		Distorted
ab  -----------------------------------------------------------------|
db  -----------------------------------------------------------------|
e    ----------------------------------------------------------------|
b    ------0-0-0---7---0--0--0--7-h-5-0--5---h--7--0--7--0--0--3-----|
gb  -------0-0-0---7---0--0--0--7-h-5-0--5---h--7--0--7--0--0--3-----|
b    ------0-0-0---7---0--0--0--7-h-5-0--5---h--7--0--7--0--0--3-----|

Intro II	pm	4x	Distorted
ab  -------------------------------------------------------------------|
db  -------------------------------------------------------------------|
e    ------------------------------------------------------------------|
b    ------------------------------------------------------------------|
gb  ------0-0-0---7--0-0-0-----7-h--5-0--5--h--7--0--7--0--0--3--------|
b    -----0-0-0---7--0-0-0-----7-h--5-0--5--h--7--0--7--0--0--3--------|

Interlude 	1x	Distorted
ab  ------------------------------------------------------------------|
db  ------------------------------------------------------------------|
e    -----------------------------------------------------------------|
b    -------33333----xxxxx----55555---xxxxx-----00000----xxxxx--------|
gb  --------33333----xxxxx----55555---xxxxx-----00000----xxxxx--------|
b    -------33333----xxxxx----55555---xxxxx-----00000----xxxxx--------|

ab  -----------------------------------------------|
db  -----------------------------------------------|
e    ----------------------------------------------|
b    -------33333----xxxxx----55555---xxxxx--------|
gb  --------33333----xxxxx----55555---xxxxx--------|
b    -------33333----xxxxx----55555---xxxxx--------|

Chorus		2x	Distorted
ab  --------------------------------------------------------------------|
db  --------------------------------------------------------------------|
e    -------------------------------------------------------------------|
b    --000----33---55---000---33--55----000----77---55---000---77--55---|
gb  ---000----33---55---000---33--55----000----77---55---000---77--55---|
b    --000----33---55---000---33--55----000----77---55---000---77--55---|

Mute	1x	Distorted
ab  -------------------------|
db  -------------------------|
e    ------------------------|
b    -----xxxxx--------------|
gb  ------xxxxx--------------|
b    -----xxxxx--------------|

Quick Verse   2x		Distorted
ab  -----------------------------------------------------------------------|
db  -----------------------------------------------------------------------|
e    ----------------------------------------------------------------------|
b    -000--7--000--7--000--7--000--5--000--7--000--7--000--7--000--55---77-|
gb  --000--7--000--7--000--7--000-----000--7--000--7--000--7--000--55---77-|
b    -000--7--000--7--000--7--000-----000--7--000--7--000--7--000--55---77-|
[ Tab from: http://www.guitartabs.cc/tabs/n/nothing_to_gain/without_warning_tab.html ]
Intro   2x  pm		Distorted
ab  -----------------------------------------------------------------|
db  -----------------------------------------------------------------|
e    ----------------------------------------------------------------|
b    ----------------------------------------------------------------|
gb  -----------------------------------------------------------------|
b    ------0--0--0---7----0--0--0--7-h-5--0--5--h-7--0--7-0-0--3-----|

Intro II	pm	2x	Distorted
ab  ------------------------------------------------------------------|
db  ------------------------------------------------------------------|
e    -----------------------------------------------------------------|
b    -----------------------------------------------------------------|
gb  ------0-0-0---7--0-0-0-----7-h--5-0--5--h--7--0--7--0--0--3-------|
b    -----0-0-0---7--0-0-0-----7-h--5-0--5--h--7--0--7--0--0--3-------|

Short Pause

verse 4x		Distorted
ab  -------------------------------------------------------------------|
db  -------------------------------------------------------------------|
e    ------------------------------------------------------------------|
b    ------0-0-0---7---0--0--0--7-h-5-0--5---h--7--0--7--0--0--3-------|
gb  -------0-0-0---7---0--0--0--7-h-5-0--5---h--7--0--7--0--0--3-------|
b    ------0-0-0---7---0--0--0--7-h-5-0--5---h--7--0--7--0--0--3-------|

----Just Drums------------
----Then Bass Part Below
6x
e   ----------------------------------------------------------------------|
b   ----------------------------------------------------------------------|
gb  ----------------------------------------------------------------------|
b   -----000000---7---00000-----7----5---0---5---7---0---7---0----0----3--|

Guitar Comes in with Mute
Intro II	pm	2x  Come in on start of basses 3rd time	Distorted
ab  -------------------------------------------------------------------|
db  -------------------------------------------------------------------|
e    ------------------------------------------------------------------|
b    ------------------------------------------------------------------|
gb  ------0-0-0---7--0-0-0-----7-h--5-0--5--h--7--0--7--0--0--3--------|
b    -----0-0-0---7--0-0-0-----7-h--5-0--5--h--7--0--7--0--0--3--------|

Short Pause

verse 4x		Distorted
ab  --------------------------------------------------------------------|
db  --------------------------------------------------------------------|
e    -------------------------------------------------------------------|
b    ------0-0-0---7---0--0--0--7-h-5-0--5---h--7--0--7--0--0--3--------|
gb  -------0-0-0---7---0--0--0--7-h-5-0--5---h--7--0--7--0--0--3--------|
b    ------0-0-0---7---0--0--0--7-h-5-0--5---h--7--0--7--0--0--3--------|

Interlude II	4x	Distorted
ab  ---------------------------------------------------|
db  ---------------------------------------------------|
e    --------------------------------------------------|
b    --------------------------------------------------|
gb  ---------------------------------------------------|
b    ---------00000---7-----00000----7----5------------|

Interlude III	4x       Distorted
ab  ---------------------------------------------------|
db  ---------------------------------------------------|
e    --------------------------------------------------|
b    --------------------------------------------------|
gb  --------00000---7---00000----7---5-----------------|
b    -------00000---7---00000----7---5-----------------|

verse 8x		Distorted
ab  --------------------------------------------------------------------|
db  --------------------------------------------------------------------|
e    -------------------------------------------------------------------|
b    ------0-0-0---7---0--0--0--7-h-5-0--5---h--7--0--7--0--0--3--------|
gb  -------0-0-0---7---0--0--0--7-h-5-0--5---h--7--0--7--0--0--3--------|
b    ------0-0-0---7---0--0--0--7-h-5-0--5---h--7--0--7--0--0--3--------|
Comments