Not Katies - Safe With Me Chords & Tabs

 

Safe With Me Chords & Tabs

Not Katies Chords & Tabs

Version: 1 Type: Tab 0 ratings
1 star 2 stars 3 stars 4 stars 5 stars
comments

Safe With Me Tab

   
NOT KATIES
SAFE WITH ME
AT EVERY TURN

Verse: 

C / A / E / G  Mute these chords and play them twice over
     
    C    A    E   G
E --0---0---0---3------------------------
A --3---0---2---2------------------------
D --2---2---2---0------------------------
G --0---2---1---0------------------------
B --1---2---0---0------------------------
E --0---0---0---3------------------------

when it breaks out, play this part twice :
[ Tab from: http://www.guitartabs.cc/tabs/n/not_katies/safe_with_me_tab.html ]
E--------------------------------------------------------------------
B--------------------------------------------------------------------
G---------------0----------------0---------------0-------------------
D------2^3--------------2^3--------------2^3-------------2^3------2--
A--3-3-----3-3-----0-0------0-0--------------------------------------
E-----------------------------------0-0------0-0-----3-3------3-3----              
                                                     *
on the second time instead of playing the last part (marked by the *) 

just strike an F chord 3 times.

chorus chords: A / F / C / G
  A    F   C    G
E 0----X---0----3------------------------
A 0----0---3----2------------------------
D 2----3---2----0------------------------
G 2----2---0----0------------------------
B 2----1---1----0------------------------
E 0----1---0----3------------------------

middle section chords: F / G / A x2, then  F / G / A, then G / F / G
      F    G    A   
E ----X---3---0---------------------
A ----0---2---0---------------------
D ----3---0---2---------------------
G ----2---0---2---------------------
B ----1---0---2---------------------
E ----1---3---0---------------------

The last chorus and outro part are the same chords as the verse just in a more
staggered style.  Once again you'll need to listen to the CD to see how this sounds.
Comments