Not Katies - Gratitude Chords & Tabs

 

Gratitude Chords & Tabs

Not Katies Chords & Tabs

Version: 1 Type: Tab 0 ratings
1 star 2 stars 3 stars 4 stars 5 stars
comments

Gratitude Tab

   
NOT KATIES
GRATITUDE
AT EVERY TURN
KEY:  / slide  ^ hammer on/pull off

Intro/pre-chorus

E--------------------------------------------------------------------------|
B--3-3-3-3-3-2-2-2-2-2-3-3-3-3-3-3-3-3-7-7-7-7-7-5-5-5-5^7^5/3-3-3-3-3-3-3-|
G--4-4-4-4-4-2-2-2-2-2-0-0-0-0-0-0-0-0-7-7-7-7-7-7-7-7-7-----0-0-0-0-0-0-0-|
D--------------------------------------------------------------------------|
A--------------------------------------------------------------------------|
E--------------------------------------------------------------------------|

verse: D / F# / A / G 
    D   F#  A    G
E --x---2---0----3------------------------
A --0---4---0----2------------------------
D --0---4---2----0------------------------
G --2---3---2----0------------------------
B --3---2---0----0------------------------
E --2---2---0----3------------------------
[ Tab from: http://www.guitartabs.cc/tabs/n/not_katies/gratitude_tab.html ]
chorus: D / E / B / G
    D   E     B   G
E --x---0-----2---3----------------------
A --0---2-----2---2----------------------
D --0---2-----4---0----------------------
G --2---1-----4---0----------------------
B --3---0-----4---0----------------------
E --2---0-----2---3----------------------


Lead for chorus:

E-----------------  Just repeat this part all the way through the 
B--------5^7^5----  chorus.
G-7--7-7----------
D-----------------
A-----------------
E-----------------


Middle Section:

B / G   E / G

    B   G   E   G
E --2---3---0---3----------------
A --2---2---2---2----------------
D --4---0---2---0----------------
G --4---0---1---0----------------
B --4---0---0---0----------------
E --2---3---0---3----------------


Hope thats ok.  you'll need to check the cd for the order and timing,
but thats pretty much it.
Comments