Not By Choice - Wish Upon A Star Chords & Tabs

 

Wish Upon A Star Chords & Tabs

Not By Choice Chords & Tabs

Version: 1 Type: Tab 0 ratings
1 star 2 stars 3 stars 4 stars 5 stars
comments

Wish Upon A Star Tab

   
Band      - Not By Choice
Song Name - Wish Upon A Star
Tabbed by - Nicholas (think_blink_182@hotmail.com)

Intro (clean)
e|---------------------------------------------------|
B|---------------------------------------------------|
G|--------------------------7-7-7-7-5-5-5-5-5-5-7-7--|
D|--5-5-5-5-4-4-4-4-2-2-2-2-7-7-7-7-5-5-5-5-5-5-7-7--|
A|--5-5-5-5-4-4-4-4-2-2-2-2-5-5-5-5-3-3-3-3-3-3-5-5--|
E|--3-3-3-3-2-2-2-2-0-0-0-0--------------------------|

(distortion on)
(gtr.1)
e|---------------------------------------------------|
B|---------------------------------------------------|
G|--4-4-4-4-2-2-2-2-0-0-0-0-------------4-2-------7--|
D|--------------------------4-4-4-4-2-2-----2-4-5----|
A|---------------------------------------------------|
E|---------------------------------------------------|

(gtr.2)
e|---------------------------------------------------|
B|---------------------------------------------------|
G|--------------------------7-7-7-7-5-5-5-5-5-5-7-7--|
D|--5-5-5-5-4-4-4-4-2-2-2-2-7-7-7-7-5-5-5-5-5-5-7-7--|
A|--5-5-5-5-4-4-4-4-2-2-2-2-5-5-5-5-3-3-3-3-3-3-5-5--|
E|--3-3-3-3-2-2-2-2-0-0-0-0--------------------------| 

Riff
e|-----------------------------------|
B|-----------------------------------|
G|----------5-5-5-5---------7-7-7-7--|
D|--5-5-5-5-5-5-5-5-2-2-2-2-7-7-7-7--|
A|--5-5-5-5-3-3-3-3-2-2-2-2-5-5-5-5--|
E|--3-3-3-3---------0-0-0-0----------|

Verse (palm muted)
e|-----------------------------------|
B|-----------------------------------|
G|------------------5-5-5-5-7-7-7-7--|
D|--5-5-5-5-5-5-5-5-5-5-5-5-7-7-7-7--|
A|--5-5-5-5-5-5-5-5-3-3-3-3-5-5-5-5--|
E|--3-3-3-3-3-3-3-3------------------|

Pre-Chorus
e|-----------------------------------|
B|-----------------------------------|
G|--5-5-5-5-5-5-5-5-7-7-7-7-7-7-7-7--|
D|--5-5-5-5-5-5-5-5-7-7-7-7-7-7-7-7--|
A|--3-3-3-3-3-3-3-3-5-5-5-5-5-5-5-5--|
E|-----------------------------------|
[ Tab from: http://www.guitartabs.cc/tabs/n/not_by_choice/wish_upon_a_star_tab.html ]
(gtr.1)
e|---------------------------------------------------|
B|---------------------------------------------------|
G|--4-4-4-4-2-2-2-2-0-0-0-0-------------4-2-------7--|
D|--------------------------4-4-4-4-2-2-----2-4-5----|
A|---------------------------------------------------|
E|---------------------------------------------------|

(gtr.2)
e|---------------------------------------------------|
B|---------------------------------------------------|
G|--------------------------7-7-7-7-5-5-5-5-5-5-7-7--|
D|--5-5-5-5-4-4-4-4-2-2-2-2-7-7-7-7-5-5-5-5-5-5-7-7--|
A|--5-5-5-5-4-4-4-4-2-2-2-2-5-5-5-5-3-3-3-3-3-3-5-5--|
E|--3-3-3-3-2-2-2-2-0-0-0-0--------------------------| 

Chorus
e|---------------------------------------------------------------------|
B|---------------------------------------------------------------------|
G|------------------7-7-7-7-7-7-7-7-2-2-2-2-2-2-2-2-4-5-5-5-5-7-7-7-7--|
D|--5-5-5-5-5-5-5-5-7-7-7-7-7-7-7-7-2-2-2-2-2-2-2-2-4-5-5-5-5-7-7-7-7--|
A|--5-5-5-5-5-5-5-5-5-5-5-5-5-5-5-5-0-0-0-0-0-0-0-0-2-3-3-3-3-5-5-5-5--|
E|--3-3-3-3-3-3-3-3----------------------------------------------------|

Bridge
e|----------------|
B|----------------|
G|--5~~~~--7~~~~--|
D|--5~~~~--7~~~~--|
A|--3~~~~--5~~~~--|
E|----------------|

(gtr.1)
e|---------------------------------------------------|
B|---------------------------------------------------|
G|--4-4-4-4-2-2-2-2-0-0-0-0-------------4-2-------7--|
D|--------------------------4-4-4-4-2-2-----2-4-5----|
A|---------------------------------------------------|
E|---------------------------------------------------|

(gtr.2) (palm muted)
e|---------------------------------------------------|
B|---------------------------------------------------|
G|----------------------------------5-5-5-5-5-5-7-7--|
D|----------------------------------5-5-5-5-5-5-7-7--|
A|----------------------------------3-3-3-3-3-3-5-5--|
E|---------------------------------------------------| 

Ending
e|---------------------------------------|
B|---------------------------------------|
G|--------------------4-4-4-5-5-5-5------|
D|--4-5-5-5-5-5-5-5-5-4-4-4-5-5-5-5-5-5--|
A|--4-5-5-5-5-5-5-5-5-2-2-2-3-3-3-3-5-5--|
E|--2-3-3-3-3-3-3-3-3---------------3-3--|

Order
-----
Intro
Riff (2x)
Verse (2x)
Pre-Chorus
Chorus (2x)
Straight (G5)
Verse (2x)(1st time bass only)
Pre-Chorus
Chorus (2x)
Riff (2x)
Bridge
Chorus (4x)
Ending
Comments