Not By Choice - Standing All Alone Chords & Tabs

 

Standing All Alone Chords & Tabs

Not By Choice Chords & Tabs

Version: 3 Type: Tab 0 ratings
1 star 2 stars 3 stars 4 stars 5 stars
comments

Standing All Alone Tab

   
Not By Choice
Standing all alone
Tabbed by: Headless_duck77
Standard tuning
x=mute 
h=hammer on
Intro (Bass):
e:------------------------------------------------
B:------------------------------------------------
G:------------------------------------------------
D:------------------------------------------------ x1
A:-2-2-2-2-2-2------------------------------------
E:-------------0-0-0-0-0-0-4-4-4-4-4-4-2-2-2-2-2-2

e:--------------------------------------
B:--------------------------------------
G:--------------------------------------
D:-------------------------------------4
A:-2-2-2-2-2-2-------------------------4
E:-------------0-0-0-0-0-0-4-4-4-4-4-4-2

After Chorus Thing:
e:------------------------------------------
B:------------------------------------------
G:-4-4-4-4-4--------------------------------
D:-4-4-4-4-4-2-2-2-2-2-2-6-6-6-2-4-4-4-6-6-4
A:-2-2-2-2-2-2-2-2-2-2-2-6-6-6-2-4-4-4-6-6-4
E:-----------0-0-0-0-0-0-4-4-4-0-2-2-2-4-4-2

e:------------------------------------------------
B:------------------------------------------------
G:-4-4-4-4-4-------------------------------------4
D:-4-4-4-4-4-2-2-2-2-2-2-x-x-4-x-x-4-x-x-4-4h6-6-4
A:-2-2-2-2-2-2-2-2-2-2-2-x-x-4-x-x-4-x-x-4-4h6-6-2
E:-----------0-0-0-0-0-0-x-x-2-x-x-2-x-x-2-2h4-4--

Verse:
e:----------------------------------------
B:----------------------------------------
G:-x-x-x-x-------------------------------4
D:-x-x-x-x-4-x-x-x-x-6-x-x-x-x-2-2-4-4-6-4
A:-x-x-x-x-4-x-x-x-x-6-x-x-x-x-2-2-4-4-6-2
E:---------2-x-x-x-x-4-x-x-x-x-0-0-2-2-4--

e:------------------------------
B:------------------------------
G:-x-x-x-x----------------------
D:-x-x-x-x-4-x-x-x-x-6-6-6-6-6-2
A:-x-x-x-x-4-x-x-x-x-6-6-6-6-6-2
E:---------2-x-x-x-x-4-4-4-4-4-0

Pre Chorus:
e:----------------------------------------------
B:----------------------------------------------
G:-4-4-4-4-4------------------------------------
D:-4-4-4-4-4-4-4-4-4-4-4-6-6-6-6-6-6-2-2-2-4-4-6
A:-2-2-2-2-2-4-4-4-4-4-4-6-6-6-6-6-6-2-2-2-4-4-6
E:-----------2-2-2-2-2-2-4-4-4-4-4-4-0-0-0-2-2-4

e:----------------------------------------------
B:----------------------------------------------
G:-4-4-4-4-4------------------------------------
D:-4-4-4-4-4-4-4-4-4-4-4-2-2-2-2-2-6-6-6-6-4-4-4
A:-2-2-2-2-2-4-4-4-4-4-4-2-2-2-2-2-6-6-6-6-4-4-4
E:-----------2-2-2-2-2-2-0-0-0-0-0-4-4-4-4-2-2-2

Chorus:
e:----------------------------------------------
B:----------------------------------------------
G:-4-4-4-4-4------------------------------------
D:-4-4-4-4-4-2-2-2-2-2-2-6-6-6-6-6-6-4-4-4-4-4-4 
A:-2-2-2-2-2-2-2-2-2-2-2-6-6-6-6-6-6-4-4-4-4-4-4
E:-----------0-0-0-0-0-0-4-4-4-4-4-4-2-2-2-2-2-2

e:----------------------------------------------
B:----------------------------------------------
G:-4-4-4-4-4------------------------------------
D:-4-4-4-4-4-2-2-2-2-2-2-6-6-6-6-6-6-4-4-4-4-4-4 
A:-2-2-2-2-2-2-2-2-2-2-2-6-6-6-6-6-6-4-4-4-4-4-4
E:-----------0-0-0-0-0-0-4-4-4-4-4-4-2-2-2-2-2-2

After Chorus Thing:
e:------------------------------------------
B:------------------------------------------
G:-4-4-4-4-4--------------------------------
D:-4-4-4-4-4-2-2-2-2-2-2-6-6-6-2-4-4-4-6-6-4
A:-2-2-2-2-2-2-2-2-2-2-2-6-6-6-2-4-4-4-6-6-4
E:-----------0-0-0-0-0-0-4-4-4-0-2-2-2-4-4-2

e:------------------------------------------------
B:------------------------------------------------
G:-4-4-4-4-4-------------------------------------4
D:-4-4-4-4-4-2-2-2-2-2-2-x-x-4-x-x-4-x-x-4-4h6-6-4
A:-2-2-2-2-2-2-2-2-2-2-2-x-x-4-x-x-4-x-x-4-4h6-6-2
E:-----------0-0-0-0-0-0-x-x-2-x-x-2-x-x-2-2h4-4--

Verse:
e:----------------------------------------
B:----------------------------------------
G:-x-x-x-x-------------------------------4
D:-x-x-x-x-4-x-x-x-x-6-x-x-x-x-2-2-4-4-6-4
A:-x-x-x-x-4-x-x-x-x-6-x-x-x-x-2-2-4-4-6-2
E:---------2-x-x-x-x-4-x-x-x-x-0-0-2-2-4--

e:------------------------------
B:------------------------------
G:-x-x-x-x----------------------
D:-x-x-x-x-4-x-x-x-x-6-6-6-6-6-2
A:-x-x-x-x-4-x-x-x-x-6-6-6-6-6-2
E:---------2-x-x-x-x-4-4-4-4-4-0
[ Tab from: http://www.guitartabs.cc/tabs/n/not_by_choice/standing_all_alone_tab_ver_3.html ]
Pre Chorus:
e:----------------------------------------------
B:----------------------------------------------
G:-4-4-4-4-4------------------------------------
D:-4-4-4-4-4-4-4-4-4-4-4-6-6-6-6-6-6-2-2-2-4-4-6
A:-2-2-2-2-2-4-4-4-4-4-4-6-6-6-6-6-6-2-2-2-4-4-6
E:-----------2-2-2-2-2-2-4-4-4-4-4-4-0-0-0-2-2-4

e:----------------------------------------------
B:----------------------------------------------
G:-4-4-4-4-4------------------------------------
D:-4-4-4-4-4-4-4-4-4-4-4-2-2-2-2-2-6-6-6-6-4-4-4
A:-2-2-2-2-2-4-4-4-4-4-4-2-2-2-2-2-6-6-6-6-4-4-4
E:-----------2-2-2-2-2-2-0-0-0-0-0-4-4-4-4-2-2-2

Chorus:
e:----------------------------------------------
B:----------------------------------------------
G:-4-4-4-4-4------------------------------------
D:-4-4-4-4-4-2-2-2-2-2-2-6-6-6-6-6-6-4-4-4-4-4-4 
A:-2-2-2-2-2-2-2-2-2-2-2-6-6-6-6-6-6-4-4-4-4-4-4
E:-----------0-0-0-0-0-0-4-4-4-4-4-4-2-2-2-2-2-2

e:----------------------------------------------
B:----------------------------------------------
G:-4-4-4-4-4------------------------------------
D:-4-4-4-4-4-2-2-2-2-2-2-6-6-6-6-6-6-4-4-4-4-4-4 
A:-2-2-2-2-2-2-2-2-2-2-2-6-6-6-6-6-6-4-4-4-4-4-4
E:-----------0-0-0-0-0-0-4-4-4-4-4-4-2-2-2-2-2-2

Pre Bridge:

e:----------------------------------------------------
B:----------------------------------------------------
G:----------------------------------------------------
D:-2-2-2-2-2-2-2-2-2-2-2-2-2-4-4-4-4-4-4-4-4-4-4-4-4-4
A:-2-2-2-2-2-2-2-2-2-2-2-2-2-4-4-4-4-4-4-4-4-4-4-4-4-4
E:-0-0-0-0-0-0-0-0-0-0-0-0-0-2-2-2-2-2-2-2-2-2-2-2-2-2

e:----------------------------------------------------
B:----------------------------------------------------
G:----------------------------------------------------
D:-2-2-2-2-2-2-2-2-2-2-2-2-2-4-4-4-4-4-4-4-4-4-4-4-4-4
A:-2-2-2-2-2-2-2-2-2-2-2-2-2-4-4-4-4-4-4-4-4-4-4-4-4-4
E:-0-0-0-0-0-0-0-0-0-0-0-0-0-2-2-2-2-2-2-2-2-2-2-2-2-2

Bridge:
e:------------------------------------------------
B:------------------------------------------------
G:------------------------------------------------
D:-6-6-6-6-6-6-6-6-6-6-6-6-2-2-2-2-2-2-2-2-2-2-2-2
A:-6-6-6-6-6-6-6-6-6-6-6-6-2-2-2-2-2-2-2-2-2-2-2-2
E:-4-4-4-4-4-4-4-4-4-4-4-4-0-0-0-0-0-0-0-0-0-0-0-0

e:--------------------------------
B:--------------------------------
G:-4-4-4-4-4-4-4-4----------------
D:-4-4-4-4-4-4-4-4-4-4-4-4-4-4-4-4
A:-2-2-2-2-2-2-2-2-4-4-4-4-4-4-4-4
E:-----------------2-2-2-2-2-2-2-2

e:-----------------------------------------------------
B:-----------------------------------------------------
G:-------------------------------------------------4---
D:-6-6-6-6-6-6-6-6-6-6-6-6-2-2-2-2-2-2-2-2-2-2-2-2-4--4
A:-6-6-6-6-6-6-6-6-6-6-6-6-2-2-2-2-2-2-2-2-2-2-2-2-2--4
E:-4-4-4-4-4-4-4-4-4-4-4-4-0-0-0-0-0-0-0-0-0-0-0-0----2

After Chorus Thing:
e:------------------------------------------
B:------------------------------------------
G:-4-4-4-4-4--------------------------------
D:-4-4-4-4-4-2-2-2-2-2-2-6-6-6-2-4-4-4-6-6-4
A:-2-2-2-2-2-2-2-2-2-2-2-6-6-6-2-4-4-4-6-6-4
E:-----------0-0-0-0-0-0-4-4-4-0-2-2-2-4-4-2

e:------------------------------------
B:------------------------------------
G:-4-4-4-4-4--------------------------
D:-4-4-4-4-4-2-2-2-2-2-2-4-4-4-4-4-4-4
A:-2-2-2-2-2-2-2-2-2-2-2-4-4-4-4-4-4-4
E:-----------0-0-0-0-0-0-2-2-2-2-2-2-2

Altered Corus
e:----------------------------
B:----------------------------
G:-4--------------------------
D:-4---2-2-2-2---6-6---4-4-4-4
A:-2---2-2-2-2---6-6---4-4-4-4
E:-----0-0-0-0---4-4---2-2-2-2

e:----------------------------
B:----------------------------
G:-4--------------------------
D:-4---2-2-2-2---6-6-6-6-6-6-6
A:-2---2-2-2-2---6-6-6-6-6-6-6
E:-----0-0-0-0---4-4-4-4-4-4-4

Chorus:
e:----------------------------------------------
B:----------------------------------------------
G:-4-4-4-4-4------------------------------------
D:-4-4-4-4-4-2-2-2-2-2-2-6-6-6-6-6-6-4-4-4-4-4-4 
A:-2-2-2-2-2-2-2-2-2-2-2-6-6-6-6-6-6-4-4-4-4-4-4
E:-----------0-0-0-0-0-0-4-4-4-4-4-4-2-2-2-2-2-2

e:----------------------------------------------
B:----------------------------------------------
G:-4-4-4-4-4------------------------------------
D:-4-4-4-4-4-2-2-2-2-2-2-6-6-6-6-6-6-4-4-4-4-4-4 
A:-2-2-2-2-2-2-2-2-2-2-2-6-6-6-6-6-6-4-4-4-4-4-4
E:-----------0-0-0-0-0-0-4-4-4-4-4-4-2-2-2-2-2-2

Outro:
e:----------
B:----------
G:-4-4-4-4-4
D:-4-4-4-4-4
A:-2-2-2-2-2
E:----------
Comments