Not By Choice - Standing All Alone Chords & Tabs

 

Standing All Alone Chords & Tabs

Not By Choice Chords & Tabs

Version: 2 Type: Tab 0 ratings
1 star 2 stars 3 stars 4 stars 5 stars
comments

Standing All Alone Tab

   
This is just the first guitar part so it is just their chord progressions.  I will post the guitar two later.

Band: Not By Choice
Song: Standing All Alone

Intro(bass only)

Interlude 1
e----------------------------I----------------------------------I
B----------------------------I----------------------------------I
G-44444----------------------I-44444----------------------------I
D-44444-22222-6666-5-44-66-4-I-44444-22222-44-4-44-4-44-4-4-666-I
A-22222-22222-6666-5-44-66-4-I-22222-22222-44-4-44-4-44-4-4-666-I
E-------00000-4444-3-22-44-2-I-------00000-22-2-22-2-22-2-2-444-I
								..	..   ..   .  
					
Verse:

e------------------------------------------I
B------------------------------------------I
G-4-4444444--------------------------------I
D-4-4444444-4-4444444-6-666666-2-22-(4-44)-I     X2
A-2-2222222-4-4444444-6-666666-2-22-(4-44)-I
E-----------2-2222222-4-444444-0-00-(2-22)-I
    .......   .......   ......   ..    ..

()1ST TIME ONLY

Chorus:
e-------------------------I
B-------------------------I
G-44444-------------------I
D-44444-22222-66666-44444-I   x2
A-22222-22222-66666-44444-I
E-------00000-44444-22222-I
[ Tab from: http://www.guitartabs.cc/tabs/n/not_by_choice/standing_all_alone_tab_ver_2.html ]
Chorus 2
e-------------------------  ------------------------------I
B-------------------------  ------------------------------I
G-44444-------------------  ------------------------------I x2
D-44444-22222-66666-44444-x2-22222222222222-4444444444444-I
A-22222-22222-66666-44444-  -22222222222222-4444444444444-I
E-------00000-44444-22222-  -00000000000000-2222222222222-I

Interlude 2

e----------------------------------------------------I
B----------------------------------------------------I
G------------------------------4-4-4-4-4-4-----------I
D-66666666666666-2222222222222-4-4-4-4-4-4-4-4-4-4-4-I
A-66666666666666-2222222222222-2-2-2-2-2-2-4-4-4-4-4-I
E-44444444444444-0000000000000-------------2-2-2-2-2-I

e-----------------------------------------------------I
B-----------------------------------------------------I
G------------------------------4----------------------I
D-66666666666666-2222222222222-4(let ring)4-----------I
A-66666666666666-2222222222222-2----------4(let ring)-I
E-44444444444444-0000000000000------------2-----------I



ORDER:

Intro
Interlude 1
Verse
Chorus 1
Interlude 1
Verse
chorus 2
Interlude 2
Interlude 1
Chorus 1 x2

Comments