Not By Choice - Standing All Alone Chords & Tabs

 

Standing All Alone Chords & Tabs

Not By Choice Chords & Tabs

Version: 1 Type: Tab 0 ratings
1 star 2 stars 3 stars 4 stars 5 stars
comments

Standing All Alone Tab

   
Artist : Not By Choice
TiTle : Standing All Alone
Tuning : E A D G B E
This is the first tab ive seen for this song, so if you have ANY corrections or
any comments email or msn me at      guitim69@hotmail.com
The amount of strumming isn't exact, but listen to song and you'll get it. Its not the full song
but its definitly a start.

Intro :

e---------------------------------------
B---------------------------------------
G---------------------------------------     bass intro but it works any way
D---------------------------------------
A--2-2-2-2-------------------------------          2x
E----------0-0-0-0-4-4-4-4--2-2-2-2-2-2--
[ Tab from: http://www.guitartabs.cc/tabs/n/not_by_choice/standing_all_alone_tab.html ]
e-----------------------------------------------------------
B-----------------------------------------------------------
G-4-4-4-4---------------------------------------------------     (first time)   
D-4-4-4-4-2-2-2-2--(6-6-6-6-6-6--4-4-4-4--6-6-6--4-4-4)-------            This is kinda the main Riff
A-2-2-2-2-2-2-2-2--(6-6-6-6-6-6--4-4-4-4--6-6-6--4-4-4)-------       2x    they play this a lot.
E---------0-0-0-0--(4-4-4-4-4-4--2-2-2-2--4-4-4--2-2-2)-------


PM---                  PM---                  PM----
e--------------------------------------------------------------------
B--------------------------------------------------------------------
G--------------------------------------------------------------------
D-4-4--------4-----------4-4----------4----------4-4------------4----     second time
A-4-4--------4-----------4-4----------4----------4-4------------4----
E-2-2--------2-----------2-2----------2----------2-2------------2----

Verse :

e---------------------------------------------------------------------
B-pm___________-------------------------------------------------------
G-4-4-4-4-4-4-4-pm___________----_____________----_____________-------
D-4-4-4-4-4-4-4-4-4-4-4-4-4-4--6-6-6-6-6-6-6-6--2-2-2-2-2-2-2-2-------
A-2-2-2-2-2-2-2-4-4-4-4-4-4-4--6-6-6-6-6-6-6-6--2-2-2-2-2-2-2-2-------
E---------------2-2-2-2-2-2-2--4-4-4-4-4-4-4-4--0-0-0-0-0-0-0-0-













Comments