Not By Choice - Now That You Are Leaving Chords & Tabs

 

Now That You Are Leaving Chords & Tabs

Not By Choice Chords & Tabs

Version: 1 Type: Tab 0 ratings
1 star 2 stars 3 stars 4 stars 5 stars
comments

Now That You Are Leaving Tab

   
NOT BY CHOICE
NOW THAT YOU ARE LEAVING

After watching the video, I noticed that this is the right way to play it. There is no picking in this song at all.

(starts with bass intro)
INTRO(guitar 1)(x2)
E----------------------------------------------------------
B----------------------------------------------------------
G-8-----------88888888-------------------------------------
D-8-----------88888888-88888888-1010101010101010-6666-8888-
A-6-----------66666666-88888888-1010101010101010-6666-8888-
E---pickslide----------66666666-8-8-8-8-8-8-8-8--4444-6666-

(guitar 2)(x2)
E----------------------------------------------------------
B----------------------------------------------------------
G---8-7-8-7-8-7-8-7-8-7-8-7-8-7-8-7-8-7-12-10-8-13-12-10---
D---x-x-x-x-x-x-x-x-x-x-x-x-x-x-x-x-x-x-x--x--x-x--x--x----
A---6-5-6-5-6-5-6-5-6-5-6-5-6-5-6-5-6-5-10-8--6-11-10-8----
E----------------------------------------------------------

VERSE 1(guitar1)
E----------------------------------------------------------
B----------------------------------------------------------
G-8888------------------------8888-------------------------
D-8888-8888-10101010-6666-----8888-8888-10101010-6666------
A-6666-8888-10101010-6666-(x3)6666-8888-10101010-6666(x2)-
E------6666-8-8-8-8--4444----------6666-8-8-8-8--4444------
Pm                            **** **** * * * *  ****

(guitar2)played during 2nd pm riff
E----------------------------------------------------------
B----------------------------------------------------------
G-88888888888888888888888888-(both guitars play this part)-
D-xxxxxxxxxxxxxxxxxxxxxxxxxx-8888888888888888888-xxxxxxx---
A-66666666666666666666666666-8888888888888888888-xxxxxxx---
E----------------------------6666666666666666666-xxxxxxx---
[ Tab from: http://www.guitartabs.cc/tabs/n/not_by_choice/now_that_you_are_leaving_tab.html ]
CHORUS(both guitars)(x2)
E----------------------------------------------------------
B----------------------------------------------------------
G---88888888-----------------------------------------------
D---88888888-88888888-1010101010101010-66666-10-88888------
A---66666666-88888888-1010101010101010-66666-10-88888------
E------------66666666-8-8-8-8-8-8-8-8--44444-8--66666------

INTRO(guitar 2 plays this instead)
E----------------------------------------------------------
B----------------------------------------------------------
G---8-7-8-7-8-10-12-10-8--8-7-8-10-12-13-12-10-8-----------
D---x-x-x-x-x-x--x--x--x--x-x-x-x--x--x--x--x--x-----------
A---6-5-6-5-6-8--10-8--6--6-5-6-8--10-11-10-8--6-----------
E----------------------------------------------------------

VERSE 2(both guitars)
E----------------------------------------------------------
B----------------------------------------------------------
G-888-----------888---------------
D-888-101010-6~-888-10101010-6666-(same pm riff from 
A-666-101010-6~-666-10101010-6666- first verse)
E-----8-8-8--4~-----8-8-8-8--4444-

CHORUS
INTRO 2

BRIDGE(x2)
E----------------------------------------------------------
B----------------------------------------------------------
G------------88888888--------------------------------------
D---66666666-88888888-1010101010101010-88888888------------
A---66666666-66666666-1010101010101010-88888888------------
E---44444444-----------8-8-8-8-8-8-8-8-66666666------------

CHORUS
INTRO 2 (X2)

OUTRO(guitar 1)(x2)
E----------------------------------------------------------
B----------------------------------------------------------
G---88888888-----------------------------------------------
D---88888888-88888888-1010101010101010-66666666------------
A---66666666-88888888-1010101010101010-66666666------------
E------------66666666--8-8-8-8-8-8-8-8-44444444------------

(guitar 2)
E----------------------------------------------------------
B----------------------------------------------------------
G---8-7-8-7-8-7-8-7-8-7-8-7-8-7-8-7-8-7-8-7----------------
D---x-x-x-x-x-x-x-x-x-x-x-x-x-x-x-x-x-x-x-x----------------
A---6-5-6-5-6-5-6-5-6-5-6-5-6-5-6-5-6-5-6-5----------------
E----------------------------------------------------------
Comments