Not By Choice - Make My Day Chords & Tabs

 

Make My Day Chords & Tabs

Not By Choice Chords & Tabs

Version: 1 Type: Bass Tab 0 ratings
1 star 2 stars 3 stars 4 stars 5 stars
comments

Make My Day Bass Tab

Band:Not By CHoice
Song:Make My Day
My Name:Justin
E-mail:themarktomandtravsshow@hotmail.com (no I in Travis)

Hey! I just heard Standing All Alone on MMUSA and went to tab it and
saw that this was another good song so, I decided to tab it. Here goes
nothin'!

The tuning is standard.


After Intro
|---------------------------------------------------------------------
|---------------------------------------------------------------------
|---------------7-7-9\3-3333333---------------3-3-333-55555-----------
|3-3-333-5-5555-----------------3-3-333-5-5555------------------------
                  ^Listen to the song to figure this part out.

Verse X2
|---------------------------------------------------------------------
|---------------------------------------------------------------------
|-------------7-77777777777---------------3-33333-5-55555555----------
|3-333333333----------------0-00000000000-----------------------------
                             ^I think this is right
[ Tab from: http://www.guitartabs.cc/tabs/n/not_by_choice/make_my_day_btab.html ]
Chorus
|---------------------------------------------------------------------
|---------------------------------------------------------------------
|---------------7-7-9\3-3333333---------------3-3-333-55555-----------
|3-3-333-5-5555-----------------3-3-333-5-5555------------------------

Second Verse
|---------------------------------------------------------------------
|---------------------------------------------------------------------
|------7-----------------3-3333333-5-55555555-------------------------
|3------------0-00000000----------------------------------------------


Solo Thingie
|---------------------------------------------------------------------
|---------------------------------------------0-0---------------------
|---------------7-7-9\3-3333333---------------3-3-333-55555-----------
|3-3-333-5-5555-----------------3-3-333-5-5555------------------------

Then, at the end of the song theres that thing at the end of the last 
chorus. I think it goes like this.

|---------------------------------------------------------------------
|---------------------------------------------------------------------
|--------7-7777777-55555-3333333--------------------3-3333333333------
|3-333333------------------------3-3333333-55555555-------------------

I think thats how it goes. I'm not sure what the outro is.

That's all folks! thankyew thankyew!  E-mail me for the ending or post
it if you know it.
Comments