Nosotros - Yo Chords & Tabs

 

Yo Chords & Tabs

Nosotros Chords & Tabs

Version: 1 Type: Tab 0 ratings
1 star 2 stars 3 stars 4 stars 5 stars
comments

Yo Tab

Nosotros
Yo

h  - harmonics
ah - artificial harmonics

Intro: x4
e--------------------------------|------|
B--------------------------------|------|
G--------------------------------|-7^ah-|
D-5--5-5-5-5---------------------|------|
A-5--5-5-5-5-7h-7h-7h--9h-9h--5h-|------|
E-3--3-3-3-3---------------------|------|

Pre-Verse:
e---------|
B---------|
G---------|
D-5-5---5-|
A-5-5---5-|
E-3-3---3-|
[ Tab from: http://www.guitartabs.cc/tabs/n/nosotros/yo_tab.html ]
Verse:
 Pensando      en como soy     me siento     mal como soy       yo creo
e------------------------------------------------------------------------|
B------------------------------------------------------------------------|
G------------------------------------------------------------------------|
D---------5-5--------------5-5-----------5-5---------------5-5--5-5-5-5--|
A---------5-5--------------5-5-----------5-5---------------5-5--5-5-5-5--|
E---------3-3--------------3-3-----------3-3---------------3-3--3-3-3-3--|
                                                            P.M---------|
      que no es normal      sentirme        el inmortal
e----------------------------------------------------|
B----------------------------------------------------|
G----------------------------------------------------|
D-5-5-----5-5-5-5-------5-5--5-5-5-5---5-5--5-5-5-5--|
A-5-5-----5-5-5-5-------5-5--5-5-5-5---5-5--5-5-5-5--|
E-3-3-----3-3-3-3-------3-3--3-3-3-3---3-3--3-3-3-3--|
      P.M--------|          |-------|      |-------|

Chorus:
 Quiero largarme de aqui
 quiero salir a volar
 quiero ocultarme del sol...
e---------------------------------|
B---------------------------------|
G-7-7-7--5-5-5--2---------------2-|
D-7-7-7--5-5-5--0---------------0-|
A-5-5-5--3-3-5-----0-0-0h3p0------|
E----------------------------3----|
 Quiero olvidar
 quiero olvidar  quien soy yo 
e--------------|-----------|
B--------------|-----------|
G--------------|-----------|
D-5-5-5-5-5-5--|---4-4--3--|
A-5-5-5-5-5-5--|---4-4--3--|
E-3-3-3-3-3-3--|---2-2--1--|

Repeat
Intro
Verse
Chorus
Intro
Solo: Not posted
Intro: With small changes
Bridge: No guitar
Chorus x2

Comments