Northstar - Rocket City Chords & Tabs

 

Rocket City Chords & Tabs

Northstar Chords & Tabs

Version: 1 Type: Bass Tab

Rocket City Bass Tab

   
Rocket City by Northstar

Intro (Bass comes in at 0:13)
G]-----------------------------------------------------------------]
D]-----------------------------------------------------------------]
A]-2-2-2-2-------------------------2-2-2-2-------------------------]
E]---------3-3-3-3-0-0-0-0-0-0-0-0---------3-3-3-3-0-0-0-0-0-0-0-0-]

Verse
G]----------------------------------------------------------------]
D]----------------------------------------------------------------]
A]-2-2-2-2-2-2-2-2-5-5-5-5-5-5-5-5--------------------------------]
E]---------------------------------3-3-3-3-3-3-3-3-3-3-3-3-3-3-3-3]

G]-------------------------------------------------------------]
D]-------------------------------------------------------------]
A]-2-2-2-2-2-2-2-2-5-5-5-5-5-5-5-5--------------------------520]
E]---------------------------------3-3-3-3-3-3-3-3-3-3-3-3-3---]

(And get lost losing myself in the northern sky...)
G]-----------------------------------------------------------------]
D]-----------------------------------------------------------------]
A]-2-2-2-2-------------------------2-2-2-2-------------------------]
E]---------3-3-3-3-0-0-0-0-0-0-0-0---------3-3-3-3-0-0-0-0-0-0-0-0-]

Verse
G]----------------------------------------------------------------]
D]----------------------------------------------------------------]
A]-2-2-2-2-2-2-2-2-5-5-5-5-5-5-5-5--------------------------------]
E]---------------------------------3-3-3-3-3-3-3-3-3-3-3-3-3-3-3-3]

G]----------------------------------------------------------------]
D]----------------------------------------------------------------]
A]-2-2-2-2-2-2-2-2-5-5-5-5-5-5-5-5----------------------------520-]
E]---------------------------------3-3-3-3-3-3-3-3-3-3-3-3-3-3----]

(And say goodbye...)
G]-----------------------------------------------------------------]
D]-----------------------------------------------------------------]
A]-2-2-2-2-------------------------2-2-2-2-------------------------]
E]---------3-3-3-3-0-0-0-0-0-0-0-0---------3-3-3-3-0-0-0-0-0-0-0-0-]

Chorus
G]-----------------------------------------------------------------]
D]-----------------------------------------------------------------]
A]-5-5-5-5-2-2-----5-5-5-5-2-2-----5-5-5-5-2-2-----5-5-5-5-2-2-----]
E]-------------3-3-------------3-3-------------3-3-------------3-3-]

G]-----------------------------------------------------------------]
D]-----------------------------------------------------------------]
A]-5-5-5-5-2-2-----5-5-5-5-2-2-----5-5-5-5-2-2-----5-5-5-5-2-2-----]
E]-------------3-3-------------3-3-------------3-3-------------3-3-]

(If i stay here I'll be dying forever...)
G]---------------------------------------]
D]---------------------------------------]
A]-2-2-----2-2-----2-2-----2-2-0h2p0h2p0-]
E]-----3-0-----3-0-----3-0---------------]

(Losing everything that I know...)
G]-------------------------------------------------------------------------]
D]-------------------------------------------------------------------------]
A]-2-2-2-2-2-5-5-----2-2-2-2-2-5-5-----2-2-2-2-2-5-5-----2-2-2-2-2-5-5-----]
E]---------------3-3---------------3-3---------------3-3---------------3-3-]
[ Tab from: http://www.guitartabs.cc/tabs/n/northstar/rocket_city_btab.html ]
G]-----------------------------------------]
D]-----------------------------------------]
A]-------0-2/7-7\2-0-2-0-------2h0-7\2-0---]
E]-3-3-3-----------------3-3-3-----------3-]

G]-------------------------------------------------------------------]
D]-------------------------------------------------------------------]
A]-2-2-2-2-5-5-5-5--------------20--2-2-2-2-5-5-5-5--------------520-]
E]-----------------3-3-3-3-3-3-3--3-----------------3-3-3-3-3-3-3----]

G]-----------------------------------------------------------------]
D]-----------------------------------------------------------------]
A]-2-2-2-2-------------------------2-2-2-2-------------------------]
E]---------3-3-3-3-0-0-0-0-0-0-0-0---------3-3-3-3-0-0-0-0-0-0-0-0-]

Verse
G]----------------------------------------------------------------]
D]----------------------------------------------------------------]
A]-2-2-2-2-2-2-2-2-5-5-5-5-5-5-5-5--------------------------------]
E]---------------------------------3-3-3-3-3-3-3-3-3-3-3-3-3-3-3-3]

G]-------------------------------------------------------------]
D]-------------------------------------------------------------]
A]-2-2-2-2-2-2-2-2-5-5-5-5-5-5-5-5-----------------------------]
E]---------------------------------3-3-3-3-3-3-3-3-3-3-3-3-3520]

(And knock the stars down to die...)
G]-----------------------------------------------------------------]
D]-----------------------------------------------------------------]
A]-2-2-2-2-------------------------2-2-2-2-------------------------]
E]---------3-3-3-3-0-0-0-0-0-0-0-0---------3-3-3-3-0-0-0-0-0-0-0-0-]

Chorus
G]-----------------------------------------------------------------]
D]-----------------------------------------------------------------]
A]-5-5-5-5-2-2-----5-5-5-5-2-2-----5-5-5-5-2-2-----5-5-5-5-2-2-----]
E]-------------3-3-------------3-3-------------3-3-------------3-3-]

G]-----------------------------------------------------------------]
D]-----------------------------------------------------------------]
A]-5-5-5-5-2-2-----5-5-5-5-2-2-----5-5-5-5-2-2-----5-5-5-5-2-2-----]
E]-------------3-3-------------3-3-------------3-3-------------3-3-]

(If i stay here I'll be dying forever...)
G]---------------------------------------]
D]---------------------------------------]
A]-2-2-----2-2-----2-2-----2-2-0h2p0h2p0-]
E]-----3-0-----3-0-----3-0---------------]

(Losing everything that I know...)
G]-------------------------------------------------------------------------]
D]-------------------------------------------------------------------------]
A]-2-2-2-2-2-5-5-----2-2-2-2-2-5-5-----2-2-2-2-2-5-5-----2-2-2-2-2-5-5-----]
E]---------------3-3---------------3-3---------------3-3---------------3-3-]

G]-----------------------------------------]
D]-----------------------------------------]
A]-------0-2/7-7\2-0-2-0-------2h0-7\2-0---]
E]-3-3-3-----------------3-3-3-----------3-]

Outro
G]----------------------------------------------------]
D]----------------------------------------------------]
A]----0h2----------0h2----------0h2----------0h2------]
E]-0-------0h3--0-------0h3--0-------0h3--0-------0h3-]


h=Hammer-on
p=Pull
/=Slide up
\=Slide down

This is my first tab so send me feedback on it or rate it.I dont know how close it is
to the actual tab so just have fun with it and change some parts if it sounds better.