Northstar - Pornographers Daughter Chords & Tabs

 

Pornographers Daughter Chords & Tabs

Northstar Chords & Tabs

Version: 1 Type: Tab 0 ratings
1 star 2 stars 3 stars 4 stars 5 stars
comments

Pornographers Daughter Tab

"I can't leave with words like these..."

e--------------------------------------------]
b--------------------------------------------]
g-6666666--111111----------444444------------]
d-6666666--222222-222222---444444------------]
a-4444444--222222-222222---222222------------]
d-----------------222222---------------------]
  ....... ....... ......   ........PM
"we'll celebrate like we were free..."

(not sure about...i think most of this is guitar 2)
e-------------]  e-----------------------------------------]
b----------4~-]  b----------------------4------------------]
g-----4----4~-]  g-----4-----4~-----4---4------------------]
d---5---5--5~-]  d---4---4---4~---5--5--5---6/2------------]
a-0-----------]  a-0---------4~--0----------0-0------------]
d-------------]  d-----------------------------------------]


"And i know a place..."
e--------------------------------------------]
b--------------------------------------------]
g-6666666--111111----------444444------------]
d-6666666--222222-222222---444444------------]
a-4444444--222222-222222---222222------------]
d-----------------222222---------------------]
  ......  ......  ......   .......PM

"shes a keeper..."
e-------------]  e-----------------------------------------]
b----------4~-]  b----------------------4------------------]
g-----4----4~-]  g-----4-----4~-----4---4------------------]
d---5---5--5~-]  d---4---4---4~---5--5--5---6/2------------]
a-0-----------]  a-0---------4~--0----------0-0------------]
d-------------]  d-----------------------------------------]

"And i'll be..." "My breath...   "intentions..."         
e-------]     [------------------][---------]
b-------]     [------------------][---------]
g-6~-4~-]     [6666666--4444444--][4~-------]
d-6~-4~-]     [4444444--2222222--][2~-------]
a-4~-2~-]     [4444444--2222222--][2~-------]
d-------]     [------------------][---------]
               .......  .......


CHORUS:"This is not for me..."
E-------------------------------------]
B-------------------------------------]
G-6666666--444444------------4444444--]
D-6666666--444444-222222222--4444444--]repeat
A-4444444--222222-222222222--2222222--]
D-----------------222222222-----------]
[ Tab from: http://www.guitartabs.cc/tabs/n/northstar/pornographers_daughter_tab.html ]
interlude...
                     (whole thing repeat twice)
e-------------------------------]-----------------------------]
b-------------------------------]-----------------------------]
g-----------------6-4-----------]-----------------------------]
d---6h9-6--4h6b------6-4-64-4h6-]--6h9-6-4h6b~-2h4p2--2h6fb---]
a-------------------------------]-----------------------------]
d-------------------------------]-----------------------------]
                  .. ... ..      


e----------------]
b----------------]
g------9t--------]
d------9t--------]
a----------------]
d----------------]
      . palm muted tremlo(this is the other guitar)


"Or do I hurt just on purpose..."

e--------------------------------------------]
b--------------------------------------------]
g-6666666--111111----------444444------------]
d-6666666--222222-222222---444444------------]
a-4444444--222222-222222---222222------------]
d-----------------222222---------------------]
  ......  ......  ......   .......PM


"you blow out first..."
e-------------]  e-----------------------------------------]
b----------4~-]  b----------------------4------------------]
g-----4----4~-]  g-----4-----4~-----4---4------------------]
d---5---5--5~-]  d---4---4---4~---5--5--5---6/2------------]
a-0-----------]  a-0---------4~--0----------0-0------------]
d-------------]  d-----------------------------------------]

"And i'll be..." "My breath...   "intentions..."         
e-------]     [------------------][---------]
b-------]     [------------------][---------]
g-6~-4~-]     [6666666--4444444--][4~-------]
d-6~-4~-]     [4444444--2222222--][2~-------]
a-4~-2~-]     [4444444--2222222--][2~-------]
d-------]     [------------------][---------]
               .......  .......
CHORUS:"This is not for me..."
E-------------------------------------]
B-------------------------------------]
G-6666666--444444------------4444444--]
D-6666666--444444-222222222--4444444--]repeat
A-4444444--222222-222222222--2222222--]
D-----------------222222222-----------]

                     (whole thing repeat twice)
e-------------------------------]-----------------------------]
b-------------------------------]-----------------------------]
g-----------------6-4-----------]-----------------------------]
d---6h9-6--4h6b------6-4-64-4h6-]--6h9-6-4h6b~-2h4p2--2h6fb---]
a-------------------------------]-----------------------------]
d-------------------------------]-----------------------------]
                  .. ... ..      
"And I'll be the reason you'll leave this city..."
e------------------------------------------]
b------------------------------------------]
g-----4~-66666---444444---------444444-----]
d--2~-4~-666666--444444-222222--444444-----]
a--2~-2~-444444--222222-222222--222222-----]
d--2~-------------------222222-------------]



okay it took me a bit to get the tabs for this song cause everythings pretty hard to
hear so i got the first guitar parts i tried my best and im not sure about 2 parts but
most of it i think its close if not right....any questions comments entirely_smooth_chick@hotmail.com
Comments