Northstar - Pollyanna Chords & Tabs

 

Pollyanna Chords & Tabs

Northstar Chords & Tabs

Version: 2 Type: Tab 0 ratings
1 star 2 stars 3 stars 4 stars 5 stars
comments

Pollyanna Tab

-------------------------------------------------------------------------------
			     Northstar - Pollyanna
-------------------------------------------------------------------------------

Drop D tuning

* - palm mute
h - hammer on 
p - pull off
x - hand mute
s - slide




INTRO


Guitar I  (0:00)-(0:24)
e|-----------------------------------------------------------|
b|-----------------------------------------------------------|
g|--------4--------------------------------------------------|
d|--------4---------2-2-2-----6--------4-4-4-----------------|x4
a|--------2---------2-2-2-----6--------4-4-4-----------------|
d|------------------2-2-2-----6--------4-4-4-----------------|
                      *                  *                 
Guitar II (0:00)-(0:24)
e|-----------------------------------------------------------|
b|-----------------------------------------------------------|
g|-4x-4x--6h8h6-4--6-6h8h6-4--6h8h6-4--6-6h8h6-6p4-6p4-------|
d|-4x-4x-----------------------------------------------------|
a|-2x-2x-----------------------------------------------------|\
d|-----------------------------------------------------------| \
   *  *                                                         \ x2
e|----------------------------------------------|------------|  /
b|----------------------------------------------|------------| /
g|--------6h8h6-4--6-6h8h6-4--6h8h6-4--6-4-4----|---4--------|/
d|----------------------------------------------|---4--------| - only after 2nd time
a|----------------------------------------------|---2--------|
d|----------------------------------------------|------------|





                  
 VERSE 

Guitar I  (0:25)-(0:45)
e|-----------------------------------------------------------|
b|-----------------------------------------------------------|
g|----4444444444444444---------------------------------------|
d|----4444444444444444------66666666-----22222222------------|x4
a|----2222222222222222------66666666-----22222222------------|
d|--------------------------66666666-----22222222------------|
      ****************      ********     ********

Guitar II (0:26)-(0:42)  
e|------------------------------------------------------------------------|
b|----------------------------------------------------00---------0--------|
g|------8-------------4------8----6-------------4-----44------6p4-4-------|
d|------6-------------4------6----4-------------4-------------------------|
a|------------------------------------------------------------------------|
d|------------------------------------------------------------------------|
..it ends . .deliberate...neck..off..fingerprints...elegent...well stop    



Guitar II (0:46)-(1:08)
e|--------------------------------------------|
b|--------------------------------------------|
g|-----8--11p8-8---------8---------8----------|
d|----9-9-----9----x3---9-9--11p9-9-----------|x1
a|--------------------------------------------|
d|--------------------------------------------|

e|--------------------------------------------|
b|--------------------------------------------|
g|-----8--11p8-8---------8---------8----------|
d|----9-9----------x3---9-9--11p9-------------|x3
a|--------------------------------------------|
d|--------------------------------------------|

PRE CHORUS


Guitar I  (1:09)(1:19)
e|----------------------------------------------|
b|----------------------------------------------|
g|-------------66---44----------------66---44---|
d|--66xxx------44---44----66xxx-------44---44---|
a|--66xxx------44---22----66xxx-------44---22---|
d|--66xxx-----------------66xxx-----------------|

Guitar II
e|----------------------------------------------|
b|-------8-6s8------------------8-6s4-----------|
g|----------------------------------------------|
d|----------------------------------------------|
a|----------------------------------------------|
d|----------------------------------------------|

Guitar I
e|----------------------------------------------|
b|----------------------------------------------|
g|-------------66---44--------------------------|
d|--66xxx------44---22----66xxx-----------------|
a|--66xxx------44---22----66xxx-----------------|
d|--66xxx-----------------66xxx-----------------|

Guitar II
e|----------------------------------------------|
b|-------8-6s8------------------8-6s4-----------|
g|----------------------------------------------|
d|----------------------------------------------|
a|----------------------------------------------|
d|----------------------------------------------|

CHORUS


Guitar I  (1:20)-(1:42)
e|-----------------------------------------------------------------------|
b|-----------------------------------------------------------------------|
g|--------------------444444-----------------------------444444----------|
d|----666666--444444--444444--222222-----666666--444444--444444---222222-|
a|----666666--444444--222222--222222-----666666--444444--222222---222222-|
d|----666666--444444----------222222-----666666--444444-----------222222-|
                                                                   * * *
e|-----------------------------------------------------------------------|
b|-----------------------------------------------------------------------|
g|--------------------444444-----------------------------444444----------|
d|----666666--444444--444444--222222-----666666--444444--444444----------|
a|----666666--444444--222222--222222-----666666--444444--222222---drums--|
d|----666666--444444----------222222-----666666--444444------------------|

Guitar II (1:32)-(1:42) 
e|-----------------------------------------------------------------------|
b|--------------------------------------------7--------------------------|
g|--------------4-4--8-6-------------4-4--6p4---4------------------------|
d|---------------4-------4---x3-------4----------------------------------|
a|-----------------------------------------------------------------------|
d|-----------------------------------------------------------------------|

INTERLUDE


Guitar I  (1:43)-(1:55)
e|-----------------------------------------------------------|
b|-----------------------------------------------------------|
g|--------4--------------------------------------------------|
d|--------4---------2-2-2-----6--------4-4-4-----------------|x2
a|--------2---------2-2-2-----6--------4-4-4-----------------|
d|------------------2-2-2-----6--------4-4-4-----------------|
                      *                  *
Guitar II (1:43)-(1:55)
e|-----------------------------------------------------------|
b|-----------------------------------------------------------|
g|--------6h8h6-4--6-6h8h6-4--6h8h6-4--66h8h6-6p4-6p4--------|
d|-----------------------------------------------------------|
a|-----------------------------------------------------------|
d|-----------------------------------------------------------|
                                                            
e|-----------------------------------------------------------|
b|-----------------------------------------------------------| 
g|--------6h8h6-4--6-6h8h6-4--6h8h6-4--6-4-4--------4--------|
d|--------------------------------------------------4--------|
a|--------------------------------------------------2--------|
d|-----------------------------------------------------------|


VERSE II

[ Tab from: http://www.guitartabs.cc/tabs/n/northstar/pollyanna_tab_ver_2.html ]
Guitar I  (1:57)-(2:16)
e|-----------------------------------------------------------|
b|-----------------------------------------------------------|
g|-----------------------------------------------------------|
d|--------------------------66666666-----22222222------------|x1
a|--------------------------66666666-----22222222------------|
d|--------------------------66666666-----22222222------------|
                            ********     ********
e|-----------------------------------------------------------|
b|-----------------------------------------------------------|
g|----4444444444444444---------------------------------------|
d|----4444444444444444------66666666-----22222222------------|x3
a|----2222222222222222------66666666-----22222222------------|
d|--------------------------66666666-----22222222------------|
      ****************      ********     ********


Guitar II (2:00)-(2:14)
e|-----------------------------------------------------------|
b|----------------------00------00---------------------------|
g|--------4-------------44------44-------------------8--6p4--|
d|--------4------------------------------------------6--4----|
a|-----------------------------------------------------------|
d|-----------------------------------------------------------|
 relevence...motionless.....used a thousand....before

Guitar II (2:17)-(2:39)
e|--------------------------------------------|
b|--------------------------------------------|
g|-----8--11p8-8---------8--------8-----------|
d|----9-9----------x3---9-9--11p9-------------|x4
a|--------------------------------------------|
d|--------------------------------------------|

PRE CHORUS


Guitar I  (2:40)(2:50)
e|----------------------------------------------|
b|----------------------------------------------|
g|-------------66---44----------------66---44---|
d|--66xxx------44---44----66xxx-------44---44---|
a|--66xxx------44---22----66xxx-------44---22---|
d|--66xxx-----------------66xxx-----------------|

Guitar II
e|----------------------------------------------|
b|-------8-6s8------------------8-6s4-----------|
g|----------------------------------------------|
d|----------------------------------------------|
a|----------------------------------------------|
d|----------------------------------------------|

Guitar I
e|----------------------------------------------|
b|----------------------------------------------|
g|-------------66---44--------------------------|
d|--66xxx------44---22----66xxx-----------------|
a|--66xxx------44---22----66xxx-----------------|
d|--66xxx-----------------66xxx-----------------|

Guitar II
e|----------------------------------------------|
b|-------8-6s8------------------8-6s4-----------|
g|----------------------------------------------|
d|----------------------------------------------|
a|----------------------------------------------|
d|----------------------------------------------|

CHORUS


Guitar I  (2:50)-(3:13)
e|----------------------------------------------------------------------------|
b|----------------------------------------------------------------------------|
g|--------------------444444-----------------------------444444---------------|
d|----666666--444444--444444--222222-----666666--444444--444444---2-2-2-2-2-2-|
a|----666666--444444--222222--222222-----666666--444444--222222---2-2-2-2-2-2-|
d|----666666--444444----------222222-----666666--444444-----------2-2-2-2-2-2-|
                                                                    *   *   *
e|----------------------------------------------------------------------------|
b|----------------------------------------------------------------------------|
g|--------------------444444-----------------------------444444---------------|
d|----666666--444444--444444--222222-----666666--444444--444444---222222------|
a|----666666--444444--222222--222222-----666666--444444--222222---222222------|
d|----666666--444444----------222222-----666666--444444-----------222222------|

Guitar II (3:02)-(3:13) 
e|----------------------------------------------------------------------------|
b|----------------------------------------------------------------------------|
g|--------------4-4--8-6-------------4-4-44-----------------------------------|
d|---------------4-------4---x3-------4----4----------------------------------|
a|----------------------------------------------------------------------------|
d|----------------------------------------------------------------------------|

OUTRO

Guitar I  (3:14)-(3:36)
e|----------------------------------------------------------------------------|
b|----------------------------------------------------------------------------|
g|--------------4-------------------------4---4-------------------------------|
d|----6----4----4----2----------6----4----4-4-----2---2-----------------------|
a|----6----4----2----2----------6----4----2-------2-2-------------------------|
d|----6----4---------2----------6----4------------2---------------------------|

e|----------------------------------------------------------------------------|
b|----------------------------------------------------------------------------|
g|--------------4------------------------------------44444444-----------------|
d|----6----4----4----2----------66666666---44444444--44444444--22--222--------|
a|----6----4----2----2----------66666666---44444444--22222222--22--222--------|
d|----6----4---------2----------66666666---44444444------------22--222--------|
                                 *******    *******   *******  *   **              

OUTRO II


Guitar I  (3:37)-(3:59)
e|----------------------------------------------------------------------------|
b|----------------------------------------------------------------------------|
g|--------------------444444-----------------------------444444---------------|
d|----666666--444444--444444--222222-----666666--444444--444444---222222------|x2
a|----666666--444444--222222--222222-----666666--444444--222222---222222------|
d|----666666--444444----------222222-----666666--444444-----------222222------|

Guitar II (3:37)-(3:47)
e|------------------------------|
b|------------------------------|
g|--------------4-4--8-6--------|
d|---------------4-------4------|x4
a|------------------------------|
d|------------------------------|        


Guitar II (3:48)-(3:59) 
e|----------------------------------------------------------------------------|
b|----------------------------------------------------------------------------|
g|--------------4-4--8-6----------4-4--444444---------------------------------|
d|---------------4-------4--x3-----4---444444---------------------------------|
a|----------------------------------------------------------------------------|
d|----------------------------------------------------------------------------|        

Guitar I  (4:00)
e|------------------|
b|------------------|
g|------------------|
d|------6-----------|
a|------6-----------|
d|------6-----------|

Lyrics

So this is how it ends, toxic and deliberate 
She's blood red at the neck boiling off fingerprints 
This hospital love is making death seem elegant 
Just don't breath and we'll stop time 
She said... 

I got this delicate lisp that speaks in tongues and upper lips 
Your silhouettes my favorite... 
I'm not letting go of it... 

She's got a leash that grips my teeth 
That cleans the air I breath and 
It's wrapped around this city... 

You look so lovely running through my fingers 
(Where everything's always felt right) 

So she glides off the bed with unflinching relevance 
And completely motionless... 
You're so heavy, you're so warm 
Just a pillow I've used a thousand times before 
Wrapped in velvet and filled with thorns 

I've got this weakening grip around her arms 
Around her hips 
Your silhouettes my favorite 
I'm not letting go of it... 

And I will chase it 
Grab it 
Stake it 
And rub until she fakes it 

We all bloom faster in an oncoming disaster 
And I will let this hurt... 

You look so lovely...
Comments