Northeast Party House - Empires Chords & Tabs

 

Empires Chords & Tabs

Northeast Party House Chords & Tabs

Version: 1 Type: Bass Tab 0 ratings
1 star 2 stars 3 stars 4 stars 5 stars
comments

Empires Bass Tab

-------------------------------------------------------------------------------
                             Empires - Northeast Party House
-------------------------------------------------------------------------------
Tabbed by: lukoswan
E-mail: lukoswan@live.com

Really rushed this tab for my friend learning the bass.

Tuning: Standard
Intro
G|---------------------------------------------------------------------------|
D|---------------------------------------------------------------------------|
A|---------------------------------------------------------------------------|
E|-5-7-5-7-57-5--------------------------------------------------------------|

G|---------------------------------------------------------------------------|
D|---------------------------------------------------------------------------|
A|--10-10-10-10--6-6-6-6-----------------------------------------------------|
E|-0--0--0------0-0-0----5-7-5-7-57-5----------------------------------------|
Verse 1
G|---------------------------------------------------------------------------|
D|----------------------------------5--------5-------------------------------|
A|-----------------------------------------------------------------7/9-------|
E|-7-7-77-7-7-77-7-7-7-7--3-55-0-33---3-0-33---3-0--7-7-57-57-7-57-----------|
Chorus
G|---------------------------------------------------------------------------|
D|---------------------------------------------------------------------------|
A|-1010-10-101010------------1010-10-101010------------77-7-777--------------|
E|----------------7-7-77-7-7----------------7-7-77-7-7----------7-7-77-7-7---|

G|---------------------------------------------------------------------------|
D|---------------------------------------------------------------------------|
A|-5-5-55-5-5-5--------------------------------------------------------------|
E|---------------------------------------------------------------------------|
[ Tab from: http://www.guitartabs.cc/tabs/n/northeast_party_house/empires_btab.html ]
G|---------------------------------------------------------------------------|
D|---------------------------------------------------------------------------|
A|-------------------------------------------101010-999----------------------|
E|-5-777\0-7\0-7777\0-7\0-7/10-1010-10/0--10--------------------------------|
Verse 2
G|---------------------------------------------------------------------------|
D|---------------------------------------------------------------------------|
A|-10-10-1010-10-10------------10-10-1010-10-10------------7-7-77-7-7--------|
E|------------------7-7-77-7-7------------------7-7-77-7-7-------------------|

G|---------------------------------------------------------------------------|
D|---------------------------------------------------------------------------|
A|------------5-5-55-5-5-5---------------------------------------------------|
E|-7-7-77-7-7----------------------------------------------------------------|
Chorus 2 (2:11)
G|---------------------------------------------------------------------------|
D|---------------------------------------------------------------------------|
A|----------55-5-5-5----7-7----10-10\0---------------------------------------|
E|-77-7-7-7-----------00-0----0----------------------------------------------|

G|---------------------------------------------------------------------------|
D|---------------------------------------------------------------------------|
A|--------55-5\0--7----10-10\0------------------------------------------------|
E|-77-7\0--------0-0--0-------------------------------------------------------|

G|---------------------------------------------------------------------------|
D|----------------------------------5--------5-------------------------------|
A|-----------------------------------------------------------------7/9-------|
E|-7-7-77-7-7-77-7-7-7-7--3-55-0-33---3-0-33---3-0--7-7-57-57-7-57-----------|
Chorus
G|---------------------------------------------------------------------------|
D|---------------------------------------------------------------------------|
A|-1010-10-101010------------1010-10-101010------------77-7-777--------------|
E|----------------7-7-77-7-7----------------7-7-77-7-7----------7-7-77-7-7---|

G|---------------------------------------------------------------------------|
D|---------------------------------------------------------------------------|
A|-5-5-55-5-5-5--------------------------------------------------------------|
E|---------------------------------------------------------------------------|

G|---------------------------------------------------------------------------|
D|---------------------------------------------------------------------------|
A|-------------------------------------------101010-999----------------------|
E|-5-777\0-7\0-7777\0-7\0-7/10-1010-10\0--10---------------------------------|

G|---------------------------------------------------------------------------|
D|---------------------------------------------------------------------------|
A|----------55-5-5-5---------------------------------------------------------|
E|-77-7-7-7----------00-0-0-0-55-5-5-5---------------------------------------|
Comments