Norma Jean - Shot Gun Message Chords & Tabs

 

Shot Gun Message Chords & Tabs

Norma Jean Chords & Tabs

Version: 1 Type: Tab 0 ratings
1 star 2 stars 3 stars 4 stars 5 stars
comments

Shot Gun Message Tab

   
BAND:NORMA JEAN
SONG:THE SHOTGUN MESSAGE
ALBUM:BLESS THE MARTYR AND KISS THE CHILD

I saw this somewhere there where a few mistakes but Ifixed them for you

TUNING HIGH TO LOW (A# A# F# C# G# C#) this not a typo this is really the tuning.  it is all distorted

TABBED BY iloveibanez

A#-6-6-6----6-6-6-|
A#-5-5-5----5-5-5-|
F#----------------|
C#----------------| X4
G#----------------|
C#----------------|

A#-6--------6-------6--------6--------6--------|
A#-5--------5-------5--------5--------5--------|
F#---------------------------------------------|
C#---------------------------------------------| X1
G#-----0--------0--------0-------0--------0----|
C#-----0--------0--------0-------0--------0----|

A#-----------------------------------------|
A#-----------------------------------------|
F#-----------------------------------------|
C#-----------------------------------------|  X1
G#-0000-0-0000-0-0000-0-0000-0-0000-0--0---|
C#-0000-0-0000-0-0000-0-0000-0-0000-0--0---|

A#---12-12-12-12-12---|
A#---11-11-11-11-11---|
F#--------------------|
C#--------------------|  X1
G#--------------------|
C#--------------------|

A#--------12-12--------12-12--------12-12----------|
A#--------11-11--------11-11--------11-11----------|
F#-------------------------------------------------|
C#-------------------------------------------------| X1
G#-00000--------00000--------00000--------3-6-5-2--|
C#-00000--------00000--------00000--------3-6-5-2--|

A#--------12-12----------12-12-12-12-12-12---|
A#--------11-11----------11-11-11-11-11-11---|
F#-------------------------------------------|
C#-------------------------------------------| X1
G#-00000--------00000------------------------|
C#-00000--------00000------------------------|

A#--------12-12-----------|
A#--------11-11-----------|
F#------------------------|
C#------------------------| X1
G#-00000---------3-6-5-2--|
C#-00000---------3-6-5-2--|
[ Tab from: http://www.guitartabs.cc/tabs/n/norma_jean/shot_gun_message_tab.html ]
A#--------12-12--------12-12--------12-12----------|
A#--------11-11--------11-11--------11-11----------|
F#-------------------------------------------------|
C#-------------------------------------------------| X2
G#-00000--------00000--------00000---------3-6-5-2-|
C#-00000--------00000--------00000---------3-6-5-2-|

A#-------------------------------------------------------------------------|
A#-------------------------------------------------------------------------|
F#-------------------------------------------------------------------------|
C#-------------------------------------------------------------------------| X1
G#-00000----00000----00000----00000----00000----00000----00000----3-6-5-2--|
C#-00000----00000----00000----00000----00000----00000----00000----3-6-5-2--|

A#-----------     ---------|
A#-----------     ---------|
F#-17171717--  x7 16161616-|    play the whole thing 3 times
C#-x-x-x-x---     -x-x-x-x-|
G#-15-15-15--     14141414-|
C#-----------     ---------|

A#------------------------------------------------------------------|
A#------------------------------------------------------------------|
F#-1717171717171717181818181818181819191919191919192020202020202020-
C#-X-X-X-X-X-X-X-X-X-X-X-X-X-X-X-X-X-X-X-X-X-X-X-X-X-X-X-X-X-X-X-X-- X1
G#-1515151515151515161616161616161617171717171717171818181818181818-
C#------------------------------------------------------------------

A#-6-6-6----6-6-6-|
A#-5-5-5----5-5-5-|
F#----------------|
C#----------------| X4
G#----------------|
C#----------------|

A#-6--------6-------6--------6--------6--------6-----6666--|
A#-5--------5-------5--------5--------5--------5-----5555--|
F#---------------------------------------------------------|
C#---------------------------------------------------------| X1
G#-----0--------0-------0--------0--------0----------------|
C#-----0--------0-------0--------0--------0----------------|

A#------------------------------------------------|
A#------------------------------------------------|
F#-----17--------17--------17--------17--------17-|
C#-----X---------X---------X---------X---------X--| X1
G#-0---15----0---15----0---15----0---15----0---15-|
C#-0---------0---------0---------0---------0------|

A#----
A#----
F#----
C#-0--  end with something like this
G#-0--
C#-0--

please rate and if there are any questions or corrections or anything
e-mail me at stalecheezpuff@aol.com thanks and God Bless
Comments