Norma Jean - Memphis Will Be Laid To Waste Chords & Tabs

 

Memphis Will Be Laid To Waste Chords & Tabs

Norma Jean Chords & Tabs

Version: 2 Type: Tab 0 ratings
1 star 2 stars 3 stars 4 stars 5 stars
comments

Memphis Will Be Laid To Waste Tab

   
Band:  Norma Jean
Song:  Memphis Will Be Laid To Waste
Album: Bless the Martyr and Kiss the Child
Tuning: C# G# C# F# A# D#

Key:
. = Palm Mute
~ = Let note ring
/ = slide up




Riff 1
(Both Guitars)

|-----------------|
|-----------------|
|-----------------|
|-6-6-6-6-6-6-6-6-|
|-6-6-6-6-6-6-6-6-|
|-6-6-6-6-6-6-6-6-|


Riff 2
(Both Guitars)
(Guitar 2 waits till guitar one plays it 
4 times than come in with drums and vocals)
|-----------------------|
|-------4-44444-4444444-|
|-------7-77777-7777777-|
|--000------------------|
|--000------------------|
|--000------------------|
pm ...    .....


Riff 3

|-------------------------------------------------------|
|-------------------------------------------------------|
|-------------------------------------------------------|
|-------------------------------------------------------|
|----0----0----0----0----0------0----0-------0----0---0-|
|-44---44---44---44---44---4-33---33---3-0-0---00---0---| 


Riff 4

|-----------------------------|
|-7-7-7-7-7~-7-7-7-7-7~-7~----|
|-4-4-4-4-4~-4-4-4-4-4~----4~-|
|-4-4-4-4-4~-4-4-4-4-4~-------|
|---------0~---------0~-------|
|---------0~---------0~-------|

Riff 5

|------------------------------------------------------------|
|------------------------------------------------------------|
|--00000------00000-0-0-0--0-0-0-00000------00000-----0-0-0-|
|--00000------00000-0-0-0--0-0-0-00000------00000-----0-0-0-|
|--00000------00000-0-0-0--0-0-0--00000------00000-----0-0-0-|x2
pm .....      ..... . . .  . . .  .....      .....     . . .

Riff 6

|-------|
|-------|
|-------|
|-8~-4~-|
|-8~-4~-|
|-8~-4~-|

Back to Riff 2 just played faster this time

Riff 7
[ Tab from: http://www.guitartabs.cc/tabs/n/norma_jean/memphis_will_be_laid_to_waste_tab_ver_2.html ]
|-------------------|
|-----------4-4-4-4-|
|-----------7-7-7-7-|
|--0-0-0-0----------|
|--0-0-0-0----------|
|--0-0-0-0----------|x4
pm . . . .

Riff 8

|-----------------------|
|-----------------------|
|-----------------------|
|--0000000~--0-0~--0-0~-|
|--0000000~--0-0~--0-0~-|
|--0000000~--0-0~--0-0~-|x3
pm .......   . .   . .

Than on the 4th time play it without 
holding the notes. And continue to play it

Riff 9
(Guitar 1 and 2)
|-----------------------|
|-----------------------|
|-----------------------|
|--0000000---0-0---0-0--|
|--0000000---0-0---0-0--|
|--0000000---0-0---0-0--|x12
pm .......   . .   . .


Guitar 1 plays this riff after playing the one above
8 times.
|----------------------------|
|----------------------------|
|--9~-10~--9~-----9~-10~--9~-|
|--x~--x~--x~-----x~--x~--x~-|
|--7~--8~--7~-----7~--8~--7~-|
|----------------------------|

Riff 10

|-----|
|-----|
|-----|
|--8~-|
|--8~-|
|--8~-|x4

(just guitar 1)    (both guitars)
|-------------|    |-------------|
|-------------|    |-------------|
|-------------|    |-------------|
|-------------|    |-0h2/88-8888-|
|-------------|    |-0h2-88-8888-|
|-0h2/88-8888-|x4  |-0h2/88-8888-|x4


Outro
(Guitar 1)
|--------------------|
|--------------------|
|--------------------|
|-10-10-10-10-10-10-|
|-8-8----8-8-8-8-|
|-8-8----8-8-8-8-|

Guitar 2

|----------------------------------------------|
|----------------------------------------------|
|-10-10-101010-10-10-10-101010/11-11-11111111-|
|--x--x--x-x-x--x--x--x--x-x-x/-x--x--x-x-x-x-|
|--8--8--8-8-8--8--8--8--8-8-8/-9--9--9-9-9-9-|
|----------------------------------------------|

both guitars end on 

|----|
|----|
|----|
|-6~-|
|-4~-|
|-4~-|




 There you go. Enjoy! Tabbed by DETH.I<3Alicia!  5-24-05
Comments