Norma Jean - Funeral Singer Chords & Tabs

 

Funeral Singer Chords & Tabs

Norma Jean Chords & Tabs

Version: 1 Type: Tab 0 ratings
1 star 2 stars 3 stars 4 stars 5 stars
comments

Funeral Singer Tab

   
---------------------------------
   Funeral Singer - Norma Jean
---------------------------------
Tabbed by: millarso (Jake Miller)
E-mail: millarso2.0@gmail.com

Tuning: Drop Db (Drop D half step down)

Guitar 1: Left Channel
Guitar 2: Right Channel

SECTION 1
Both Guitars
Eb|------------------------------------------|
Bb|------------------------------------------|
Gb|----------------------------8888------8---|
Db|-8p0-5--0h5p0-8--0h5p0-4----xxxx------x-0-|x4
Ab|-8p0-5--0h5p0-x--0h5p0-x--00666600----6-0-|
Db|-8p0-5--0h5p0-8--0h5p0-4--00----00-0/---0-|
                             ..    ..

SECTION 2
Guitar 1 (fuzzy, in the background)
Eb|----------------------------------------------|
Bb|----------------------------------------------|
Gb|----------------------------------------------|
Db|-8------------8---------8------------8--------|
Ab|-5------------5---------5------------5--------|
Db|---0h8--0h5p0---044440----0h8--0h5p0---044440-|
||
Guitar 2
Eb|----------------------------------------------|
Bb|----------------------------------------------|
Gb|----------------------------------------------|
Db|-8\---------------------8\-----------8--------|
Ab|-5\------------------00-5\-----------5--------|
Db|---------------------00----------------044440-|
                        ..

Guitar 1 (fuzzy, in the background)
Eb|---------------------------------------------------|
Bb|---------------------------------------------------|
Gb|---------------------------------------------------|
Db|-8------------8---------8------------8-0h13-0h13p0-|
Ab|-5------------5---------5------------5-0h13-0h13p0-|
Db|---0h8--0h5p0---044440----0h8--0h5p0---0h13-0h13p0-|
||
Guitar 2
Eb|---------------------------------------------------|
Bb|---------------------------------------------------|
Gb|---------------------------------------------------|
Db|-8\-----------8--------8\------------8-0h13-0h13p0-|
Ab|-5\-----------5--------5\------------5-0h13-0h13p0-|
Db|----------------044440-----------------0h13-0h13p0-|

Both Guitars
Eb|-----------------------|
Bb|-----------------------|
Gb|-----------------------|
Db|-8------------8--------|x3
Ab|-5------------5--------|
Db|---0h8--0h5p0---044440-|


Eb|----------------------------|
Bb|----------------------------|
Gb|----------------------------|
Db|-8------------8-0h1-0h1p0---|
Ab|-5------------5-0h1-0h1p0-00|
Db|---0h8--0h5p0---0h1-0h1p0-00|
                             ..
SECTION 3
Both Guitars
Eb|------------------------------------------------|
Bb|------------------------------------------------|
Gb|---------------------------------------------7b-|
Db|-5p0-8----5p0-8----5p0-8----5p0-8----5p0-4p0-x--|
Ab|-x---x----x---x----x---x----x---x----x---x---5b-|
Db|-5p0-8--0-5p0-8--0-5p0-8--0-5p0-8--0-5p0-4p0----|

Eb|--------------------------------------------------|
Bb|--------------------------------------------------|
Gb|--------------------------------------------------|
Db|-5p0-8----5p0-8----5p0-8----5p0-8----5p0-4p0------|
Ab|-x---x----x---x----x---x----x---x----x---x---0000-|
Db|-5p0-8--0-5p0-8--0-5p0-8--0-5p0-8--0-5p0-4p0-0000-|
                                                ....

Eb|------------------------------------------------|
Bb|------------------------------------------------|
Gb|---------------------------------------------7b-|
Db|-5p0-8----5p0-8----5p0-8----5p0-8----5p0-4p0-x--|
Ab|-x---x----x---x----x---x----x---x----x---x---5b-|
Db|-5p0-8--0-5p0-8--0-5p0-8--0-5p0-8--0-5p0-4p0----|

Eb|-----------------------------------------------------------|
Bb|-----------------------------------------------------------|
Gb|-----------------------------------------------------------|
Db|-5p0-8----5p0-8----5p0-8----5p0-8----5p0-4p0----0----------|
Ab|-x---x----x---x----x---x----x---x----x---x---00-0-00-------|
Db|-5p0-8--0-5p0-8--0-5p0-8--0-5p0-8--0-5p0-4p0-00-0-00-5p3p0-|
                                                ..   ..

SECTION 4
Both Guitars
Eb|-----------------------------------------------------|
Bb|-----------------------------------------------------|
Gb|-----------------------------------------------------|
Db|-5-----3--5--6--6------1--1-1-1-1-1-1-8--8-8-8-8-8-8-|x2
Ab|-5(24)-3--5--6--6(x14)-1--1-1-1-1-1-1-8--8-8-8-8-8-8-|
Db|-5-----3--5--6--6------1--1-1-1-1-1-1-8--8-8-8-8-8-8-|
||
Extra Guitar (really tough to make out correctly, suggestions welcome)
Eb|----------------------------------|
Bb|-(3h4p3--4h6p4-)------4---4-------|
Gb|-(-----3------3)x6--7---7---5b6-5-|
Db|----------------------------------|x2
Ab|----------------------------------|
Db|----------------------------------|

SECTION 5
Guitar 1
Eb|--------------------------------------|
Bb|--------------------------------------|
Gb|---------------(clean)----------------|
Db|-5-3-0-8--0-5--(5-5-5)----------------|
Ab|-5-3-0-8--0-5--(x-x-x)x10--8----8--8--|
Db|-5-3-0-8--0-5--(5-5-5)-----0----0--0--|
||
Guitar 2
Eb|--------------------------------------|
Bb|--------------------------------------|
Gb|--------------------------------------|
Db|-5-3-0-8--0-5\------------------------|
Ab|-5-3-0-8--0-5\------------------------|
Db|-5-3-0-8--0-5\-------------0----0--0--|

REPEAT SECTION 1

SECTION 6
Guitar 1 (fuzzy, in the background)
Eb|-----------------------|
Bb|-----------------------|
Gb|-----------------------|
Db|-8---------0-----------|
Ab|-5---------0-----------|
Db|---0h8-0h5-0----044440-|
||
Guitar 2
Eb|-----------------------|
Bb|-----------------------|
Gb|-----------------------|
Db|-8-----------8---------|
Ab|-5-----------5---------|
Db|-----------0----044440-|

Both Guitars
Eb|---------------------------------------|
Bb|---------------------------------------|
Gb|---------------------------------------|
Db|-8\--------8--------8\--------8--------|
Ab|-5\--------5--------5\--------5--------|
Db|----(bass)---044440----(bass)---044440-|

Eb|-----------------------------------------------|
Bb|-------------------------------------6b--------|
Gb|-------------------------------------6b--------|
Db|-8------------8---------8---------------0h8p5--|
Ab|-5------------5---------5---------------0h8p5--|
Db|---0h8--0h5p0---044440----0h8--0h5p0----0h8p5--|

SECTION 7
Eb|----------------------------------------------|
Bb|-------------6b---------------------6b--------|
Gb|-------------6b---------------------6b--------|
Db|-0--8--0h5p0------------0--8--0h5p0-----------|
Ab|-0--8--0h5p0------------0--8--0h5p0-----------|
Db|-0--8--0h5p0----0h8p5~--0--8--0h5p0----0h8p5~-|

Eb|--------------------------------------------|
Bb|-----------6b---------------------6b--------|
Gb|-----------6b---------------------6b--------|
Db|----8--5p0------------0--8--0h5p0-----------|
Ab|-0008005p0------------0--8--0h5p0-----------|
Db|-0008005p0----0h8p5~--0--8--0h5p0----0h8p5~-|
    ... ..

TRANSITION
Guitar 1 (Guitar 2 is just noise)
Eb|---------------------------------------------------|
Bb|---------------------------------------------------|
Gb|-----------------------------------------------6b7-|
Db|-0h5p0-8--0h5p0-8--0h5p0-8--0h5p0-8--0h5p0-4p0-----|x2
Ab|---------------------------------------------------|
Db|---------------------------------------------------|

SECTION 8
Guitar 1
Eb|-----------------------------------------------------|
Bb|-----------------------------------------------------|
Gb|--------------------------------------------------7b-|
Db|------5p0-8----5p0-8----5p0-8----5p0-8----5p0-4p0-x--|
Ab|-0000-x---x----x---x----x---x----x---x----x---x---5b-|
Db|-0000-5p0-8--0-5p0-8--0-5p0-8--0-5p0-8--0-5p0-4p0----|
||  ....
Guitar 2
Eb|---------------------------------------------------------|
Bb|---------------------------------------------------------|
Gb|------------------------------6-----------------------7b-|
Db|------5p0-8----5p0-5\4----5p0-x----5p0-5\4----5p0-4p0-x--|
Ab|-0000-x---x----x---x------x---4----x---x------x---x---5b-|
Db|-0000-5p0-8--0-5p0-5\4--0-5p0----0-5p0-5\4--0-5p0-4p0----|
    ....

Guitar 1
Eb|--------------------------------------------------|
Bb|--------------------------------------------------|
Gb|--------------------------------------------------|
Db|-5p0-8----5p0-8----5p0-8----5p0-8----5p0-4p0------|
Ab|-x---x----x---x----x---x----x---x----x---x---00---|
Db|-5p0-8--0-5p0-8--0-5p0-8--0-5p0-8--0-5p0-4p0-00---|
||                                              ..
Guitar 2
Eb|------------------------------------------------------|
Bb|------------------------------------------------------|
Gb|-------------------------6----------------------------|
Db|-5p0-8----5p0-5\4----5p0-x----5p0-5\4----5p0-4p0------|
Ab|-x---x----x---x------x---4----x---x------x---x---00---|
Db|-5p0-8--0-5p0-5\4--0-5p0----0-5p0-5\4--0-5p0-4p0-00---|
                                                     ..
Both Guitars
Eb|---------------------------------------------|
Bb|---------------------------------------------|
Gb|------------------------------------------7b-|
Db|-8---5p0-/8----5p0-8----5p0-/8----5p0-4p0-x--|
Ab|-x---x----x----x---x----x----x----x---x---5b-|
Db|-80-5p0-/8--0-5p0-8--0-5p0-/8--0-5p0-4p0----|

Eb|-----------------------------------------------------------------|
Bb|-----------------------------------------------------------------|
Gb|-----------------------------------------------------------------|
Db|-5p0-8----5p0-8----5p0-8----5p0-8----5p0-4p0---0---0---0-0-------|
Ab|-x---x----x---x----x---x----x---x----x---x---000-000-000-0-------|
Db|-5p0-8--0-5p0-8--0-5p0-8--0-5p0-8--0-5p0-4p0-000-000-000-0-5p3p0-|
                                                ..  ..  ..

REPEAT SECTION 4

SECTION 9
Guitar 1
Eb|-----------------------------------------------------------------------------------|
Bb|-----------------------------------------------------------------------------------|
Gb|-5-5555555555555555/333333333333333/10-101010101010\8-888888\7-7777777777\3333/(5)-|
Db|-----------------------------------------------------------------------------------|
Ab|-----------------------------------------------------------------------------------|
Db|-----------------------------------------------------------------------------------|
||
Guitar 2
Eb|-----------------------------------------------------|
Bb|-----------------------------------------------------|
Gb|-----------------------------------------------------|
Db|-5-----3--5--6--6------1--1-1-1-1-1-1-8--8-8-8-8-8-8-|
Ab|-5(24)-3--5--6--6(x14)-1--1-1-1-1-1-1-8--8-8-8-8-8-8-|
Db|-5-----3--5--6--6------1--1-1-1-1-1-1-8--8-8-8-8-8-8-|

Guitar 1
Eb|-----------------------------------------------------------------------------------|
Bb|--------------------------------------------------------------(slowly bend to 12)--|
Gb|-5-5555555555555555/333333333333333/10-101010101010/11-11111111111111111111111111\-|
Db|-----------------------------------------------------------------------------------|
Ab|-----------------------------------------------------------------------------------|
Db|-----------------------------------------------------------------------------------|
||
Guitar 2
Eb|---------------------------------------|
Bb|---------------------------------------|
Gb|---------------------------------------|
Db|-5-----3--5--6--6------1---1---8---8---|
Ab|-5(24)-3--5--6--6(x14)-1---1---8---8---|
Db|-5-----3--5--6--6------1---1---8---8---|
[ Tab from: http://www.guitartabs.cc/tabs/n/norma_jean/funeral_singer_tab.html ]
Guitar 1
Eb|----------------------------------------------------------------|
Bb|-------------(add-delay)------------------------3-3-3-3-6-6-6-6-|
Gb|-3-(ring)-----3h5----3h5----------------3h5--3------------------|
Db|------------------------5---------------------------------------|
Ab|----------------------------------------------------------------|
Db|----------------------------------------------------------------|
||
Guitar 2
Eb|----------------------------------------------------------------|
Bb|----------------------------------------------------------------|
Gb|----------------------------------------------------------------|
Db|-5------------5------------5------------5-----------------------|
Ab|-5-(ring)-----5-(ring)-----5-(ring)-----5-(ring)----------------|
Db|-5------------5------------5------------5-----------------------|
||
Extra Guitar (delay)
Eb|----------------------------------------------------------------|
Bb|---------------------------------------11\----------------------|
Gb|----------------------------------------------------------------|
Db|---------------------------8\-----------------------------------|
Ab|----------------------------------------------------------------|
Db|----------------------------------------------------------------|

NOTE: I suggest you just listen to the track for the rhythm on this part
because it is difficult to get the numbers right and the delay kind of makes it
difficult to know where one note ends and the other begins.

Guitar 1 (tremolo picking, let notes ring when changing strings)
Eb|---------5-(x18)--------------------------|
Bb|-8-(x46)---------8-(x34)------------------|
Gb|-------------------------11-(x12)-7-(x18)-|
Db|------------------------------------------|
Ab|------------------------------------------|
Db|-----------------------------------------|
||
Guitar 2 (tremolo picking)
Eb|-------------------------------------------------|
Bb|-------------------------------------------------|
Gb|-------------------------------------------------|
Db|-------------------------------------------------|
Ab|-------------------------------------------------|
Db|-5-(x32)-0-(x14)-4-(x18)-1-(x32)-0-(x14)-8-(x18)-|


Extra Guitar (plays constantly over the other guitars)
Eb|-------------------------------------------------|
Bb|-11-11-11-11-11-11-11----11----11----11----11----|
Gb|----------------------14----14----14----14----14-|
Db|-------------------------------------------------|
Ab|-------------------------------------------------|
Db|-------------------------------------------------|

Eb|-------------------------------------------------|
Bb|-11----11----11-11-------------------------------|
Gb|----14----14-------14-11-11-11-11-11-11-11-11-11-|
Db|-------------------------------------------------|
Ab|-------------------------------------------------|
Db|-------------------------------------------------|

Eb|------------------------------------------------------------------------------------|
Bb|-8----8----8------4---4---3---3---3-11----11----11-11-11----------------------------|
Gb|---11---11---11-7---7---5---5---5------14----14----------14-14-14-14-14-14-14-14-14-|
Db|------------------------------------------------------------------------------------|
Ab|------------------------------------------------------------------------------------|
Db|------------------------------------------------------------------------------------|

NOTE: I'm sure not all of those notes are actually plucked because
of the delay, but played without delay

Guitar 1 (let notes ring when changing strings)
Eb|----8----8------------8----8-10-8-------------------------------------------------------|
Bb|-11---11---8-(x24)-11---11--------11-10-(x16)-11----11-13----------11----11-13----------|
Gb|-----------tp------------------------tp----------14-------12-(x24)----14-------11-(x24)-|
Db|----------------------------------------------------------tp-------------------tp-------|
Ab|----------------------------------------------------------------------------------------|
Db|----------------------------------------------------------------------------------------|
||
Guitar 2 (tremolo picking)
Eb|-------------------------------------------------|
Bb|-------------------------------------------------|
Gb|-------------------------------------------------|
Db|-------------------------------------------------|
Ab|-------------------------------------------------|
Db|-5-(x32)-0-(x14)-4-(x18)-1-(x32)-0-(x14)-8-(x18)-|
||
Extra Guitar: just repeat last segment

Guitar 1
Eb|--------------------------------------------------------------|
Bb|-11-------10------8-11------8------10-------------------------|
Gb|--x-(x26)--x-(x6)-x--x-(x7)-x-(x8)--x-(x8)(let-last-one-ring)-|
Db|--8--------7------5--8------5-------7-------------------------|
Ab|--------------------------------------------------------------|
Db|--------------------------------------------------------------|
||
Guitar 2
Eb|---------------------------------------------------|
Bb|---------------------------------------------------|
Gb|---------------------------------------------------|
Db|-5-------0------4------1-------0------8------------|
Ab|-5-(x16)-0-(x7)-4-(x9)-1-(x16)-0-(x7)-8-(let-ring)-|
Db|-5-------0------4------1-------0------8------------|
||
Extra Guitar
Eb|-18-(x7)-17-(x9)-18-(x7)-14-(x9)-15-(x6)-------------------------------18-(x7)-17--\-|
Bb|--------------------------------------------16----16----15----15----15---------------|
Gb|-----------------------------------------19----19----17----17----17------------------|
Db|-------------------------------------------------------------------------------------|
Ab|-------------------------------------------------------------------------------------|
Db|-------------------------------------------------------------------------------------|

SECTION 10
Guitar 1 (some delay and other various effects, possibly light tremolo)
Eb|----8----8----------------------------8----8-------------------------|
Bb|-11---11---8-8-8-8-8-8-8-8-8-8-8-8-11---11---7-7-7-7-7-7-7-7-7-------|
Gb|---------------------------------------------------------------8-7-8-|
Db|---------------------------------------------------------------------|
Ab|---------------------------------------------------------------------|
Db|---------------------------------------------------------------------|
||
Guitar 2
Eb|-----------------------------------------------------------------|
Bb|-----------------------------------------------------------------|
Gb|-----------------------------------------------------------------|
Db|-5-5-5-5-5-5-5-5-5-5-5-5-5-5-5-5-0-0-0-0-0-0-0-4-4-4-4-4-4-4-4-4-|
Ab|-5-5-5-5-5-5-5-5-5-5-5-5-5-5-5-5-0-0-0-0-0-0-0-4-4-4-4-4-4-4-4-4-|
Db|-5-5-5-5-5-5-5-5-5-5-5-5-5-5-5-5-0-0-0-0-0-0-0-4-4-4-4-4-4-4-4-4-|

Guitar 1
Eb|---------------------------------------------------------------------------------|
Bb|-6---6-8-8-8-8----8----8-10-10-10-10-10-11-11-11-11-11-11-11-11-7-7-7-7-11-11-11-|
Gb|---8-----------10---10-----------------------------------------------------------|
Db|---------------------------------------------------------------------------------|
Ab|---------------------------------------------------------------------------------|
Db|---------------------------------------------------------------------------------|
||
Guitar 2
Eb|-----------------------------------------------------------------|
Bb|-----------------------------------------------------------------|
Gb|-----------------------------------------------------------------|
Db|-1-1-1-1-1-1-1-1-1-1-1-1-1-1-1-1-0-0-0-0-0-0-0-8-8-8-8-8-x-x-x-x-|
Ab|-1-1-1-1-1-1-1-1-1-1-1-1-1-1-1-1-0-0-0-0-0-0-0-8-8-8-8-8-x-x-x-x-|
Db|-1-1-1-1-1-1-1-1-1-1-1-1-1-1-1-1-0-0-0-0-0-0-0-8-8-8-8-8-x-x-x-x-|

Guitar 1
Eb|----8----8----------------------------8----8-------------------------|
Bb|-11---11---8-8-8-8-8-8-8-8-8-------11---11---7-7-7-7-7-7-7-7-7-------|
Gb|-----------------------------8-7-8-----------------------------8-7-8-|
Db|---------------------------------------------------------------------|
Ab|---------------------------------------------------------------------|
Db|---------------------------------------------------------------------|
||
Guitar 2
Eb|-----------------------------------------------------------------|
Bb|-----------------------------------------------------------------|
Gb|-----------------------------------------------------------------|
Db|-5-5-5-5-5-5-5-5-5-5-5-5-5-5-5-5-0-0-0-0-0-0-0-4-4-4-4-4-4-4-4-4-|
Ab|-5-5-5-5-5-5-5-5-5-5-5-5-5-5-5-5-0-0-0-0-0-0-0-4-4-4-4-4-4-4-4-4-|
Db|-5-5-5-5-5-5-5-5-5-5-5-5-5-5-5-5-0-0-0-0-0-0-0-4-4-4-4-4-4-4-4-4-|

Guitar 1
Eb|----------------------------------------------------------------------------------------|
Bb|-6---6-8-8-8-8----8----8-10-10-10-10-10-11-11-11-11-11-11-11-10-10-10-10-10-10-10-10-10-|
Gb|---8-----------10---10------------------------------------------------------------------|
Db|----------------------------------------------------------------------------------------|
Ab|----------------------------------------------------------------------------------------|
Db|----------------------------------------------------------------------------------------|
||
Guitar 2
Eb|-----------------------------------------------------------------|
Bb|-----------------------------------------------------------------|
Gb|-----------------------------------------------------------------|
Db|-1-1-1-1-1-1-1-1-1-1-1-1-1-1-1-1-0-0-0-0-0-0-0-8-8-8-8-8-8-8-8-8-|
Ab|-1-1-1-1-1-1-1-1-1-1-1-1-1-1-1-1-0-0-0-0-0-0-0-8-8-8-8-8-8-8-8-8-|
Db|-1-1-1-1-1-1-1-1-1-1-1-1-1-1-1-1-0-0-0-0-0-0-0-8-8-8-8-8-8-8-8-8-|

Guitar 1 (Slow down all three parts near the end)
Eb|-----------------------------------------------------------------------------------------|
Bb|-6---6-8-8-8-8----8----8-10-10-10-10-10-11-11-11-11-11-11-11-11-11-11-11-11-11-11-(ring)-|
Gb|---8-----------10---10-------------------------------------------------------------------|
Db|-----------------------------------------------------------------------------------------|
Ab|-----------------------------------------------------------------------------------------|
Db|-----------------------------------------------------------------------------------------|
||
Guitar 2 (drop to slight distortion on last chord)
Eb|----------------------------------------------------------3----|
Bb|----------------------------------------------------------3----|
Gb|----------------------------------------------------------3----|
Db|-1-1-1-1-1-1-1-1-1-1-1-1-1-1-1-1-0--0--0--0--8--8--8--8---5----|
Ab|-1-1-1-1-1-1-1-1-1-1-1-1-1-1-1-1-0--0--0--0--8--8--8--8---5----|
Db|-1-1-1-1-1-1-1-1-1-1-1-1-1-1-1-1-0--0--0--0--8--8--8--8---5----|
||
Extra Guitar
Eb|-18-(x7)-17-(x9)-18-(x7)-14-(x9)-15-(x6)-------------------------------18-(x4)-17-17-17-17\-|
Bb|--------------------------------------------16----16----15----15----15----------------------|
Gb|-----------------------------------------19----19----17----17----17-------------------------|
Db|--------------------------------------------------------------------------------------------|
Ab|--------------------------------------------------------------------------------------------|
Db|--------------------------------------------------------------------------------------------|

This song was actually really tough to do and I imagine that with the right
effects this tab might look quite a bit different, but this is the best representation
I can get as of now. The high lead parts are tough to line up in certain places.
Hope it works for you.
Please rate & comment.
Thanks,
millarso

************************************

| /   slide up
| \   slide down
| h   hammer-on
| p   pull-off
| ~   vibrato
| <>  harmonic
| x   Mute note
| b   Bend
| pb  Pre-bend
| br  Bend release
| pbr Pre-bend release
| brb Bend release bend

************************************
Comments