Norma Jean - Disconnecktie Chords & Tabs

 

Disconnecktie Chords & Tabs

Norma Jean Chords & Tabs

Version: 1 Type: Tab

Disconnecktie Tab

   
Norma Jean - Disconnecktie: The Faithful Vampire
Drop D & down half step
Tabber: Jordan Rozell

This is played through out most of the song by guitar two up until "...Well I thought 
I needed was just one breath..."
eb|--888888888888888888888888888888888--|
bb|--666666666666666666666666666666666--|
gb|--777777777777777777777777777777777--|
db|--777777777777777777777777777777777--|
ab|-------------------------------------|
db|-------------------------------------|

 Verse 1
eb|-------------------------------------|
bb|-------------------------------------|
gb|-------------------------------------|
db|-0--------0--------8-------3----5----|
ab|-0--------0--------8-------3----5----|
db|-0--------0--------8-------3----5----|

   "...Well I thought all I needed was just one breath..."
eb|--------------------------------------------------------------------------------------------------------|
bb|--------------------------------------------------------------------------------------------------------|
gb|-------------------------------------------------------------------------5-5-5-5--5-5-------5-5-5-5-----|
db|-8-8-8-8-8-8-8-8-8-8-8-8-8-8-8-8-8-8-8-8-8-8-8-8-8-3-3-3-3-5-5-5-5-0---0-x-x-x-x--x-x-0---0-x-x-x-x-----|
ab|-8-8-8-8-8-8-8-8-8-8-8-8-8-8-8-8-8-8-8-8-8-8-8-8-8-3-3-3-3-5-5-5-5-0---0-3-3-3-3--3-3-0---0-3-3-3-3-----|
db|-8-8-8-8-8-8-8-8-8-8-8-8-8-8-8-8-8-8-8-8-8-8-8-8-8-3-3-3-3-5-5-5-5-0---0--------------0---0---------8-8-|
                                                                                         
             . .
   "...So I begin with the end in mind..."
eb|-----------------------------------|
bb|-----------------------------------|
gb|-----------------------------------|
db|-----------------------------------|
ab|-----------------------------------|
db|-0-0-0-0-0-0-0-0-0-0-0-0-0-0-0-000-|
    . . . . . . . . . . . . . . . ...

   Bridge
eb|-----------------------------------------------|
bb|-----------------------------------------------|
gb|10--7-------7^---------14*-----15*--------7~---|
db|-x--x-------x^---------12*-----13*--------x~---|
ab|-8--5-------5^----------------------------5~---|
db|-----------------------------------------------|

   ...Bass line...

[ Tab from: http://www.guitartabs.cc/tabs/n/norma_jean/disconnecktie_tab.html ]
 Breakdown
eb|-------------------------------------------------------------------|---------------------------------|
bb|-------------------------------------------------------------------|---------------------------------|
gb|-/14----15-15-15-15-15--10-10-10-10-------10-10-10-10---5-5-5-5----|-5-5-5-5-5-----------------------|
db|-/12----12-12-12-12-12-010-10-10-10-------10-10-10-10-0-5-5-5-5----|-5-5-5-5-5-------0---------0-----|
ab|-------------------------------------------------------------------|-------------0---0---------0---0-|
db|-------------------------------------------------------------------|-----------0---0-0-----0-0-0-0---|
                                                                      |____________first bit____________|

eb|----------------------------------|------------------------------------|
bb|----------------------------------|------------------------------------|
gb|-5-5-5----------------------------|-5-5-5-5------------7^------7^--7^--|
db|-5-5-5------------0---------0-----|-5-5-5-5------------x^------x^--x^--|
ab|--------------0---0---------0---0-|--------------------5^------5^--5^--|
db|-------0h7--0---0-0-----0-0-0-0---|---------0h7--0-0-0-----0-0---------|
  |___________second bit_____________|_____________third bit______________|

This comes in after the breakdown is played twice and last four times then this guitar 
doubles the breakdown
eb|---------------------------------------12-------12--------------------------------------------12--|
bb|-----------13-------13-----------------------------13--------------13-------13--------------------|
gb|-----10----------10----10--------10----------10-------10-----10----------10----10-------10--------|
db|--12----12----12----------12--12----12----12--------------12----12----12----------12-12----12-----|
ab|--------------------------------------------------------------------------------------------------|
db|--------------------------------------------------------------------------------------------------|


 Outro
eb|---------------------------------------------------------------------------------------------------------------------|
bb|---------------------------------------------------------------------------------------------------------------------|
gb|-14-14-14-14--15-15-15-15-15---15-15-15-15--15-15-15-15-15---10-10-10-10--10-10-10-10-10-------------7^------7^--7^--|
db|-12-12-12-12--12-12-12-12-12---15-15-15-15--15-15-15-15-15---10-10-10-10--10-10-10-10-10-------0-0-0-x^--0-0-x^--x^--|
ab|-12-12-12-12--12-12-12-12-12---15-15-15-15--15-15-15-15-15---10-10-10-10--10-10-10-10-10-------0-0-0-5^--0-0-5^--5^--|
db|-12-12-12-12--12-12-12-12-12---15-15-15-15--15-15-15-15-15---10-10-10-10--10-10-10-10-10--0h7--0-0-0-----0-0---------|

   "...So I begin with the end in mind..."
eb|------------------------------|
bb|------------------------------|
gb|--------7^------------7^--7^--|
db|--------x^------------x^--x^--|
ab|--------5^------------5^--5^--|
db|-0--0-0----0-0-0--0-0---------|
    .  . .    . . .  . .

   Until end...
eb|---------------------------|
bb|---------------------------|
gb|-----7-/-10-------7-/-14---|
db|-0---x-/--x---0---x-/--x---|
ab|-0---5-/--8---0---5-/-12---|
db|-0------------0------------|


I have every O'God the Aftermath song down in my head if u want me to make a tab for u 
e-mail me at Jordn_the_adict_14@yahoo.com ill be more than happy to.