Norma Jean - Bayonetwork Chords & Tabs

 

Bayonetwork Chords & Tabs

Norma Jean Chords & Tabs

Version: 1 Type: Tab 0 ratings
1 star 2 stars 3 stars 4 stars 5 stars
comments

Bayonetwork Tab

   
                                   BAYONETWORK
                            As recorded by Norma Jean
                   (From the 2005 Album O'GOD, THE AFTERMATH)

Words and Music by Norma Jean
Transcribed by Austin Mills

Gtr I (Db Ab Db Gb Bb B) - 'w/dist'
Gtr II (Db Ab Db Gb Bb B) - 'w/dist'
Gtr III (Db Ab Db Gb Bb B) - 'w/dist'
Gtr IV (Db Ab Db Gb Bb B) - 'w/dist'
Gtr V (Db Ab Db Gb Bb B) - 'Pickscrape'

 Intro          Verse
  Fast Hardcore Q=182
            D5        N.C.          D5  N.C. D5  N.CD5
 4/4
  Gtrs I, II
  H    Q  E E    +Q   E E E E E E   E E Q  E E Q
|-------------||------5-5-5-5-5-5-|-----5------5--|
|-------------||------5-5-5-5-5-5-|-----5------5--|
|-------------||------------------|---------------|
|-------------||------------------|---------------|
|-----------0-||-(0)--------------|-0-0----0-0----|
|-----------0-||-(0)--------------|-0-0----0-0----|


      N.C.          D5  N.C. D5  N.C.
  E E E E E E E E   E E Q  E E Q
|-----5-5-5-5-5-5-|-----5------5----|
|-----5-5-5-5-5-5-|-----5------5----|
|-----------------|-----------------|
|-----------------|-----------------|
|-0-0-------------|-0-0----0-0------|
|-0-0-------------|-0-0----0-0------|


    D5  N.C.          D5  N.C. D5  N.CD5  N.C.          D5  N.C. D5  N.C.
    E E E E E E E E   E E Q  E E Q    E E E E E E E E   E E Q  E E Q
||------5-5-5-5-5-5-|-----5------5--|-----5-5-5-5-5-5-|-----5------5----||
||o-----5-5-5-5-5-5-|-----5------5--|-----5-5-5-5-5-5-|-----5------5---o||
||------------------|---------------|-----------------|-----------------||
||------------------|---------------|-----------------|-----------------||
||o-0-0-------------|-0-0----0-0----|-0-0-------------|-0-0----0-0-----o||
||--0-0-------------|-0-0----0-0----|-0-0-------------|-0-0----0-0------||


  Faster Q=188
  D5 N.C.                D5 N.CD5      N.C.                D5 N.CD5
              ~~~                               ~~~
  Q  E E     +H       Q  Q  Q  Q    Q  E E     +H       Q  Q  Q  Q
|----3--------------|-5-----5-----|----3--------------|-5-----5-----||
|----3--------------|-5-----5-----|----3--------------|-5-----5-----||
|-------------------|-------------|-------------------|-------------||
|-0-----------------|-------------|-------------------|-------------||
|-0-----------------|----0-----0--|-0-----------------|----0-----0--||
|-0----1b1.5r(1)----|----0-----0--|-0----1b1.5r(1)----|----0-----0--||


   Verse
    Faster Q=192
    N.C.
   3/4
    Q  Q  E E   E Q  E E E   Q  Q  E E   E Q  E E E   Q  Q  E E   E Q  E E E
||------------|------------|-----------|------------|-----------|-------------|
||o-----------|------------|-----------|------------|-----------|-------------|
||------------|------------|-----------|------------|-----------|-------------|
||------------|------------|-----------|------------|-----------|-------------|
||o-----------|------------|-----------|------------|-----------|-------------|
||--2--2--3p2-|-0h2--3p2p0-|-2--2--3p2-|-0h2--3p2p0-|-2--2--3p2-|-0h2--3p2p0--|


  Eb5B5 D5    Eb5B5 D5    Eb5B5 D5    Eb5B5 D5
 5/8
          PM          PM          PM          PM
  Q  Q  a E   Q  Q  a E   Q  Q  a E   Q  Q  a E
|-----------|-----------|-----------|------------||
|-----------|-----------|-----------|-----------o||
|-----------|-----------|-----------|------------||
|-----------|-----------|-----------|------------||
|-1S=9S=0-0-|-1S=9S=0-0-|-1S=9S=0-0-|-1S=9S=0-0-o||
|-1S=9S=0-0-|-1S=9S=0-0-|-1S=9S=0-0-|-1S=9S=0-0--||


  Eb5B5 D5    Eb5B5 D5    Eb5B5 D5    Eb5B5   D
  Gtr I
          PM          PM          PM
  Q  Q  a E   Q  Q  a E   Q  Q  a E   Q  Q  a E
|-----------|-----------|-----------|------------|
|-----------|-----------|-----------|------------|
|-----------|-----------|-----------|---------7--|
|-----------|-----------|-----------|---------0--|
|-1S=9S=0-0-|-1S=9S=0-0-|-1S=9S=0-0-|-1S=9S=0----|
|-1S=9S=0-0-|-1S=9S=0-0-|-1S=9S=0-0-|-1S=9S=0----|
|
| Gtr II
|         PM          PM          PM
| Q  Q  a E   Q  Q  a E   Q  Q  a E   Q  Q  a E
|-----------|-----------|-----------|------------|
|-----------|-----------|-----------|------------|
|-----------|-----------|-----------|------------|
|-----------|-----------|-----------|------------|
|-1S=9S=0-0-|-1S=9S=0-0-|-1S=9S=0-0-|-1S=9S=0----|
|-1S=9S=0-0-|-1S=9S=0-0-|-1S=9S=0-0-|-1S=9S=0----|


      C
  E E E E E   E E E E E   W
|-----------|-----------|------||
|-----------|-----------|------||
|-7-7-6-6-6-|-6-6-6-6-6-|------||
|-0-0-0-0-0-|-0-0-0-0-0-|------||
|-----------|-----------|------||
|-----------|-----------|------||
|
| W           W           W
|-----------|-----------|------||
|-----------|-----------|------||
|-----------|-----------|------||
|-----------|-----------|------||
|-----------|-----------|------||
|-----------|-----------|------||


   Chorus
    E5      N.C.            D5        E5      N.C.            D5
   4/4
    Gtrs III, IV
                            PM----|                           PM----|
    Q.   Q  E E E   E E E E E E E E   Q.   Q  E E E   E E E E E E E E
||----------------|-----------------|---------------|-----------------|
||o---------------|-----------------|---------------|-----------------|
||----------------|-----------------|---------------|-----------------|
||--2----2--------|-----------------|-2----2--------|-----------------|
||o-2----2--------|---------0---0-0-|-2----2--------|---------0---0-0-|
||--2----2--3-0-5-|-7-5-7---0---0-0-|-2----2--3-0-5-|-7-5-7---0---0-0-|


                                                  1.
  E5      N.C.            D5        G5                 C5      D5
                          PM----|
  Q.   Q  E E E   E E E E E E E E   Q.   Q  Q  E   +E   Q   Q  Q.
|---------------|-----------------|--------------|-------------------||
|---------------|-----------------|--------------|------------------o||
|---------------|-----------------|--------------|-------------------||
|-2----2--------|-----------------|-5----5--5--5-|-(5)-10--10--------||
|-2----2--------|---------0---0-0-|-5----5--5--5-|-(5)-10--10--0----o||
|-2----2--3-0-5-|-7-5-7---0---0-0-|-5----5--5--5-|-(5)-10--10--0-----||


  2.             H.=H
  F5   D5    E5
  Q.   q  q  E   +W           +W
|--------------|------------|--------||
|--------------|------------|--------||
|--------------|------------|--------||
|-3----0--0--2-|-(2)--------|-(2)----||
|-3----0--0--2-|-(2)--------|-(2)----||
|-3----0--0--2-|-(2)--------|-(2)----||


 Pre-Verse
  Original Tempo Q=182
  E5
  E E E E E E E E   E E E E E E E E
|-----------------|-----------------||
|-----------------|-----------------||
|-----------------|-----------------||
|-2-2-2-2-2-2-2-2-|-2-2-2-2-2-2-2-2-||
|-2-2-2-2-2-2-2-2-|-2-2-2-2-2-2-2-2-||
|-2-2-2-2-2-2-2-2-|-2-2-2-2-2-2-2-2-||


 Verse
  D5                D5       D5     D5                D5       D5
  Gtr I
  E E E E E E E E   E E Q  E E Q    E E E E E E E E   E E Q  E E Q
|-----5-5-5-5-5-5-|-----5------5--|-----5-5-5-5-5-5-|-----5------5-----|
|-----5-5-5-5-5-5-|-----5------5--|-----5-5-5-5-5-5-|-----5------5-----|
|-----------------|---------------|-----------------|------------------|
|-----------------|---------------|-----------------|------------------|
|-0-0-------------|-0-0----0-0----|-0-0-------------|-0-0----0-0-------|
|-0-0-------------|-0-0----0-0----|-0-0-------------|-0-0----0-0-------|
|
| Gtr V
|                                                     TP            TP
| W                 W               W                 W             a
|-----------------|---------------|-----------------|------------------|
|-----------------|---------------|-----------------|------------------|
|-----------------|---------------|-----------------|------------------|
|-----------------|---------------|-----------------|------------------|
|-----------------|---------------|-----------------|-xS============x--|
|-----------------|---------------|-----------------|-xS============x--|


  Faster Q=188
  D5 N.C.                D5 N.CD5      N.C.                D5 N.CD5
  Gtrs I, II
              ~~~                               ~~~
  Q  E E     +H       Q  Q  Q  Q    Q  E E     +H       Q  Q  Q  Q
|----3--------------|-5-----5-----|----3--------------|-5-----5-----|
|----3--------------|-5-----5-----|----3--------------|-5-----5-----|
|-------------------|-------------|-------------------|-------------|
|-0-----------------|-------------|-0-----------------|-------------|
|-0-----------------|----0-----0--|-0-----------------|----0-----0--|
|-0----1b1.5r(1)----|----0-----0--|-0----1b1.5r(1)----|----0-----0--|


  Wx2
|--------||
|--------||
|--------||
|--------||
|--------||
|--------||


   Verse
    E5 F5 D5E5 F5      D5E5 F5 G#5  D5E5 F5 D5E5   F5 D5E5 Eb5F5
          PM           PM           PM      PM        PM
    Q  Q  E Q  E   +E  E Q  Q  Q    E Q  Q  E Q    Q  E Q  Q  E
||---------------|----------------|--------------|---------------|
||o--------------|----------------|--------------|---------------|
||---------------|----------------|--------------|---------------|
||--2--3----2--3-|-(3)---2--3--6--|---2--3----2--|-3----2--1--3--|
||o-2--3--0-2--3-|-(3)-0-2--3--6--|-0-2--3--0-2--|-3--0-2--1--3--|
||--2--3--0-2--3-|-(3)-0-2--3--6--|-0-2--3--0-2--|-3--0-2--1--3--|


      D5E5 F5 D5E5      F5 D5  Eb5B5 D5    Eb5B5 D5    Eb5B5 D5    Eb5B5 D5
                   2/4        5/8
      PM      PM           PM          PM          PM          PM          PM
  +E  E Q  Q  E E   +E  Q  E   Q  Q  a E   Q  Q  a E   Q  Q  a E   Q  Q  a E
|-----------------|----------|-----------|-----------|-----------|------------||
|-----------------|----------|-----------|-----------|-----------|-----------o||
|-----------------|----------|-----------|-----------|-----------|------------||
|-(3)---2--3----2-|-(2)-3----|-----------|-----------|-----------|------------||
|-(3)-0-2--3--0-2-|-(2)-3--0-|-1S=9S=0-0-|-1S=9S=0-0-|-1S=9S=0-0-|-1S=9S=0-0-o||
|-(3)-0-2--3--0-2-|-(2)-3--0-|-1S=9S=0-0-|-1S=9S=0-0-|-1S=9S=0-0-|-1S=9S=0-0--||

[ Tab from: http://www.guitartabs.cc/tabs/n/norma_jean/bayonetwork_tab.html ]
   Bridge
    E5                      F5   E5
   4/4
    Gtr III
    W          +W           H    H      +W
||-----------|------------|-----------|--------|
||o----------|------------|-----------|--------|
||--4--------|-(4)--------|-5----4----|-(4)----|
||-----------|------------|-----------|--------|
||o----------|------------|-----------|--------|
||-----------|------------|-----------|--------|
|
|   Gtr IV
|   W          +W           H    H      +W
||-----------|------------|-----------|--------|
||o----------|------------|-----------|--------|
||-----------|------------|-----------|--------|
||--2--------|-(2)--------|-3----2----|-(2)----|
||o-2--------|-(2)--------|-3----2----|-(2)----|
||--2--------|-(2)--------|-3----2----|-(2)----|


  1.
  G5                      C5
  W           W            W            W
|----------|------------|-----------|----------||
|----------|------------|-----------|---------o||
|-7--------|-12---------|-12--------|--11------||
|----------|------------|-----------|----------||
|----------|------------|-----------|---------o||
|----------|------------|-----------|----------||
|
| W          +W            W           +W
|----------|------------|-----------|----------||
|----------|------------|-----------|---------o||
|----------|------------|-----------|----------||
|-5--------|-(5)--------|-10--------|-(10)-----||
|-5--------|-(5)--------|-10--------|-(10)----o||
|-5--------|-(5)--------|-10--------|-(10)-----||


  2.                                  H=H
  G5                      C5
  W           W            W            W
|----------|------------|-----------|---------||
|----------|------------|-----------|---------||
|-7--------|-12---------|-12--------|--16-----||
|----------|------------|-----------|---------||
|----------|------------|-----------|---------||
|----------|------------|-----------|---------||
|
| W          +W            W           +W
|----------|------------|-----------|---------||
|----------|------------|-----------|---------||
|----------|------------|-----------|---------||
|-5--------|-(5)--------|-10--------|-(10)----||
|-5--------|-(5)--------|-10--------|-(10)----||
|-5--------|-(5)--------|-10--------|-(10)----||


 Chorus
  Faster Q=192
  E5      N.C.            D5        E5      N.C.            D5
 4/4
  Gtrs III, IV
                          PM----|                           PM----|
  Q.   Q  E E E   E E E E E E E E   Q.   Q  E E E   E E E E E E E E
|---------------|-----------------|---------------|------------------|
|---------------|-----------------|---------------|------------------|
|---------------|-----------------|---------------|------------------|
|-2----2--------|-----------------|-2----2--------|------------------|
|-2----2--------|---------0---0-0-|-2----2--------|---------0---0-0--|
|-2----2--3-0-5-|-7-5-7---0---0-0-|-2----2--3-0-5-|-7-5-7---0---0-0--|


  E5      N.C.            D5        G5                   C5
                          PM----|
  Q.   Q  E E E   E E E E E E E E   Q  +E  Q  Q  E   +E   Q   E  E  E  E  E
|---------------|-----------------|----------------|------------------------|
|---------------|-----------------|----------------|------------------------|
|---------------|-----------------|----------------|------------------------|
|-2----2--------|-----------------|-5--(5)-5--5--5-|-(5)-10--10-10-10-10-10-|
|-2----2--------|---------0---0-0-|-5--(5)-5--5--5-|-(5)-10--10-10-10-10-10-|
|-2----2--3-0-5-|-7-5-7---0---0-0-|-5--(5)-5--5--5-|-(5)-10--10-10-10-10-10-|


  E5      N.C.              D5N.C.  E5      N.C.              D5N.C.
                            PM                                PM
  Q.   Q  E E E   E E E E E E Q     Q.   Q  E E E   E E E E E E Q
|---------------|---------7---7\--|---------------|---------7---7\--|
|---------------|---------7---7\--|---------------|---------7---7\--|
|---------------|-----------------|---------------|-----------------|
|-2----2--------|-----------------|-2----2--------|-----------------|
|-2----2--------|-----------0-----|-2----2--------|-----------0-----|
|-2----2--3-0-5-|-7-5-7-0---0-----|-2----2--3-0-5-|-7-5-7-0---0-----|


  E5      N.C.              D5N.C.
                            PM
  Q.   Q  E E E   E E E E E E Q
|---------------|---------7---7\--|
|---------------|---------7---7\--|
|---------------|-----------------|
|-2----2--------|-----------------|
|-2----2--------|-----------0-----|
|-2----2--3-0-5-|-7-5-7-0---0-----|


  G5                   F5   N.C.
  Q  +E  Q  Q  E   +E  Q.    E  E E E   H.      Q
|----------------|-----------7----7---|-7----------||
|----------------|-----------7----7---|-7----------||
|----------------|--------------------|------------||
|-5--(5)-5--5--5-|-(5)-3----(3)-------|------------||
|-5--(5)-5--5--5-|-(5)-3----(3)-------|------------||
|-5--(5)-5--5--5-|-(5)-3----(3)-------|------------||


   Breakdown
    N.C.                       D5N.C.                             D5N.C.
                               PM                                 PM
    H    +E  E E E   E E E E E E Q     H    +E  E E E   E E E E E E Q
||-----------------|---------7---7\--|----------------|---------7---7\----||
||o----------------|---------7---7\--|----------------|---------7---7\---o||
||-----------------|-----------------|----------------|-------------------||
||-----------------|-----------------|----------------|-------------------||
||o----------------|-----------0-----|----------------|-----------0------o||
||--2----(2)-3-0-5-|-7-5-7-0---0-----|-2----(2)-3-0-5-|-7-5-7-0---0-------||


  E5     D5                            E5     D5
         PM------------------------|          PM------------------------|
  Q  +E  E E E E E   E E E E E E E E   Q  +E  E E E E E   E E E E E E E E
|------------------|-----------------|------------------|-----------------|
|------------------|-----------------|------------------|-----------------|
|------------------|-----------------|------------------|-----------------|
|-2--(2)-----------|-----------------|-2--(2)-----------|-----------------|
|-2--(2)-0-0-0-0-0-|-0-0-0-0-0-0-0-0-|-2--(2)-0-0-0-0-0-|-0-0-0-0-0-0-0-0-|
|-2--(2)-0-0-0-0-0-|-0-0-0-0-0-0-0-0-|-2--(2)-0-0-0-0-0-|-0-0-0-0-0-0-0-0-|


  E5     D5                            E5     D5                N.C.
         PM------------------------|          PM--------------|
  Q  +E  E E E E E   E E E E E E E E   Q  +E  E E E E E   E E E E E E E E
|------------------|-----------------|------------------|-----------------||
|------------------|-----------------|------------------|-----------------||
|------------------|-----------------|------------------|-----------------||
|-2--(2)-----------|-----------------|-2--(2)-----------|-------2p0-------||
|-2--(2)-0-0-0-0-0-|-0-0-0-0-0-0-0-0-|-2--(2)-0-0-0-0-0-|-0-0-0-----2p0---||
|-2--(2)-0-0-0-0-0-|-0-0-0-0-0-0-0-0-|-2--(2)-0-0-0-0-0-|-0-0-0---------0-||


    E5     D5                           E5     D5                N.C.
           PM-----------------------|          PM-------------|
    Q  +E  E Q  E E   +E  E Q  E Q  E   Q  +E  E Q  E E   +E  Q  E E E E E
||------------------|-----------------|-----------------|--------------------||
||o-----------------|-----------------|-----------------|-------------------o||
||------------------|-----------------|-----------------|--------------------||
||--2--(2)----------|-----------------|-2--(2)----------|--------2p0---------||
||o-2--(2)-0-0--0-0-|-(0)-0-0--0-0--0-|-2--(2)-0-0--0-0-|-(0)-0------2p0----o||
||--2--(2)-0-0--0-0-|-(0)-0-0--0-0--0-|-2--(2)-0-0--0-0-|-(0)-0----------0---||


    N.C.
    Q  +E  E Q  E E   +E  E Q  E Q  E   Q  +E  E Q  E +E    E Q  E E E E E
||------------------|-----------------|-------------------|------------------||
||o-----------------|-----------------|-------------------|-----------------o||
||------------------|-----------------|-------------------|------------------||
||------------------|-----------------|-------------------|------2p0---------||
||o-----------------|-----------------|-------------------|----------2p0----o||
||--2--(2)-1-1--1-1-|-(1)-1-1--1-1--1-|-2--(2)-1-1--1-(1)-|-0-0----------0---||


                                     1.
    E Q  E E E E E   E Q  E E E E E   E Q  E E E E E   E Q  E E E E E
||-----------------|----------------|----------------|------------------||
||o----------------|----------------|----------------|-----------------o||
||-----------------|----------------|----------------|------------------||
||-------2p0-------|------2p0-------|------2p0-------|------2p0---------||
||o----------2p0---|----------2p0---|----------2p0---|----------2p0----o||
||--0-2----------0-|-0-2----------0-|-0-2----------0-|-0-2----------0---||


  2.
                                                     E5 F5
  E Q  E E E E E   E Q  E E E E E   E Q  E E E E E   Q  E E E E E E
|----------------|----------------|----------------|----------------||
|----------------|----------------|----------------|----------------||
|----------------|----------------|----------------|----------------||
|------2p0-------|------2p0-------|------2p0-------|----------------||
|----------2p0---|----------2p0---|----------2p0---|-2--3-3-3-3-3-3-||
|-0-2----------0-|-0-2----------0-|-0-2----------0-|-2--3-3-3-3-3-3-||


 Outro
  Slower Q=182
  D5  N.C.          D5  N.CD5  N.C. D5 N.D5          N.CD5 N.CD5
  Gtrs I, II
  E E E E E E E E   E E Q  E E Q    Q  E E E E E E   Q  Q  Q  Q
|-----5-5-5-5-5-5-|-----5------5--|----5-----------|-5-----5-----|
|-----5-5-5-5-5-5-|-----5------5--|----5-----------|-5-----5-----|
|-----------------|---------------|----------------|-------------|
|-----------------|---------------|-0--------------|----0-----0--|
|-0-0-------------|-0-0----0-0----|-0----0-0-0-0-0-|----0-----0--|
|-0-0-------------|-0-0----0-0----|-0----0-0-0-0-0-|----0-----0--|


  D5 N.C.              D5 N.CD5 N.C. D5 N.C.         D5 N.CD5 N.C.
  Q   E  Q   E  E  E   Q  Q  Q  Q    Q  E Q  E E E   Q  Q  Q  Q
|----11-13--12-11-12-|----8-----7--|----6-7--6-5-6-|----4-----3--*|
|----11-13--12-11-12-|----8-----7--|----6-7--6-5-6-|----4-----3--*|
|--------------------|-------------|---------------|-------------*|
|-0------------------|-------------|-0-------------|-------------*|
|-0------------------|-0-----0-----|-0-------------|-0-----0-----*|
|-0------------------|-0-----0-----|-0-------------|-0-----0-----*|
Comments