Nordeens - Out Of My Mind Chords & Tabs

 

Out Of My Mind Chords & Tabs

Nordeens Chords & Tabs

Version: 1 Type: Tab 0 ratings
1 star 2 stars 3 stars 4 stars 5 stars
comments

Out Of My Mind Tab

This is my first tab so take it easy.

Verse (clean)
e---------------------------------------------------
b---------------------------------------------------
g---------------------------------------------------
D----7--------3-------------------------------------
A----5-(x16)--5-(x16)--8-------5--------------------
E----------------------6-(x8)--3-(x8)---------------

Chorus (with distortion)
e---------------------------------------------------
b---------------------------------------------------
g---------------------------------------------------
D----7----------------------------------------------
A----5--(x6)-------5-----------8--------------------
E------------------3--(x7)-----6-(x3)---------------
(not what they play but it works)

After the first chorus the whole song is with heavy distortion

Breakdown section thing
D Power chord over and over
[ Tab from: http://www.guitartabs.cc/tabs/n/nordeens/out_of_my_mind_tab.html ]
Solo (with distortion)
e----------------------------------3-3-3-3---------3-3-3-3------------------
b----3-5-3-5-6-5-3-5-3-3-3---3---3---------6-6-5-5---------6-5-3-5-3-3-5-3-6
g--------------------------5---5--------------------------------------------
D---------------------------------------------------------------------------
A---------------------------------------------------------------------------
E---------------------------------------------------------------------------

e---------------------------------------------------------------------------
b-----3---5---3---3-5-6-6-5-3-5-3-5-3---------------------------------------
g---5---5---5---5-----------------------------------------------------------
D---------------------------------------------------------------------------
A---------------------------------------------------------------------------
E---------------------------------------------------------------------------

and thats the whole thing. just listen to the song and put it all together.
Comments