Norah Jones - Painter Chords & Tabs

 

Painter Chords & Tabs

Norah Jones Chords & Tabs

Version: 1 Type: Tab 0 ratings
1 star 2 stars 3 stars 4 stars 5 stars
comments

Painter Tab

   
This song is cool.... so i just want it to be on UG

Painter

performed by Norah Jones on  "Come Away With Me"
composed by Lee Alexander/J.C. Hopkins

transcribed by Michael Blake (All his own work.)




The song is in the form  AABA AABA with a piano solo
on the third and fourth A sections. The finger picking
is improvised.  I tabbed it out from the first verse
as an example, but it's played slightly different each
verse.


A Section
  2/4 Time
   E+      AM7              D        DdimM7 
||-------|-4-4----|--------|--------|-2------
||-1-2-1-|-2------|----2---|-3-2-0--|-2----2-
||-1-----|-1----1-|--1-----|-2----2-|-2------
||-2-----|--------|--------|-0------|-1------
||-------|-0------|0-------|--------|--------
||-------|--------|--------|--------|--------

                                 
  DdimM7 D9       F+      A        F#m     Bm     
|-------|---0----|-------|--------|--------|-------
|-----2-|-3---3--|-2-3-2-|---2----|-2------|-3-----
|---2---|-2------|-2-----|-2---2--|-2------|-4-----
|-1----1|-0------|-3-----|-2------|-4------|-4--4--
|-------|--------|-------|-0------|-4------|----2--
|-------|--------|-------|--------|-2---(2)|----2--
[ Tab from: http://www.guitartabs.cc/tabs/n/norah_jones/painter_tab.html ]
1.  If I were a  painter .....
2.  We'd be there  ...
 E+             AM7                D    Ddim7  
|:-----|-------|-------4|---------|----|-----7-
|:-1---|--1----|--------|---------|----|-7-----
|:---1-|----1--|-----2--|-----2---|-7-6|-6-----
|:-2---|--2----|---2----|---2-----|-7-7|-7-----
|:-----|-------|-0------|-0-----0-|-9-7|-6-----
|:-----|-------|--------|---------|----|-------


  Ddim7    D       C#+      A        F#m     Bm     
|---------|-------|--------|--------|-------|-------:|
|-----7---|-3--3--|---2----|-2---2--|-----2-|---3---:|
|---7-----|-4--4--|---2----|-2---2--|-2---2-|-----4-:|
|-7-------|-4--4--|-----3--|-2---2--|-4-----|-----4-:|
|-------6-|-2--2--|-4-----4|--------|-4-----|-------:|
|---------|-------|--------|--------|-2-----|-2-----:|




B Section

 And I'm  dreaming ....  
 E+      B7              Fm      A      
|-------|-------|-------|-------|-------
(Strum ~ once per beat)
 

 And I      think my  bush would take me there but
only
 Bm  Bbdim7 D  C#dim7  F#m  A     C#m7 E7 Amaj7  Bm 
|----------|----------|----------|--------------|-------:|





Outro

climb inside ...
  Bm7      E7       A9 
|---------|--------|---------4-||
|---3-----|------0-|-------0---||
|-----2---|----1---|-----2-----||
|-------4-|--0-----|---2-------||
|-2-------|2-------|-0---------||
|---------|--------|-----------||




=====
Thanks,
Comments