Norah Jones - Humble Me Chords & Tabs

 

Humble Me Chords & Tabs

Norah Jones Chords & Tabs

Version: 1 Type: Tab 0 ratings
1 star 2 stars 3 stars 4 stars 5 stars
comments

Humble Me Tab

Title:  Humble Me	   
Artist: Norah Jones
Tabbed by: Stuart Lowe

Note: There is a "Eb" root note in the chorus on the word "knees"
and "please" in the original recording. This suggests it was
probably played on a 7-string guitar, perhaps using a capo.
I have tabbed this to be playable on the 6-string guitar most
of us own, with open strings, that is no capo.
I have used "B" to replace the "Eb" which works just fine.

Intro:
|---------2---2-|---------------|---------------|-2-------------|
|-----4---4---4-|-5---5---4---4-|-----4---4-----|-4---5---5---4-|
|-----4---------|---------------|-----4---4-----|---------------|
|---------------|-6---6---4---4-|---------------|-----6---6---4-|
|-2-------------|---------------|-2-----------2-|---------------|
|---------------|-7-------------|---------------|---------------|

|---------------|---------------|---------------|---------------|
|----4-4-4-4-4--|----2-2-2-2-2--|---------------|------0-2-0----|
|---------------|---------------|----4-4-4------|---------------|
|----4-4-4-4-4--|----2-2-2-2-2--|----4-4-4-4-1--|-2--4-------4--|
|-2-------------|---------------|-2-------------|---------------|
|---------------|-2-------------|---------------|-4-------------|

                                                         1.Went
|---------------|---------------|---------------|---------------|
|----4-4-4-4-4--|----2-2-2-2-2--|------0-----0--|---------------|
|---------------|---------------|---------------|---------------|
|----4-4-4-4-4--|----2-2-2-2-2--|----1---2-4----|---------------|
|-2-------------|---------------|-2-------------|-2-------------|
|---------------|-2-------------|--------4------|-2-------------|

Verses:
  out on a limb gone too far broke down at the side of the road
|---------------|---------------|---------------|---------------|
|----4-4-4-4-4--|----2-2-2-2-2--|---------------|------0-2-0----|
|---------------|---------------|----4-4-4------|---------------|
|----4-4-4-4-4--|----2-2-2-2-2--|----4-4-4-4-1--|-2--4-------4--|
|-2-------------|---------------|-2-------------|---------------|
|---------------|-2-------------|---------------|-4-------------|

  stranded at the outskirts and sun's creepin' up
|---------------|---------------|---------------|---------------|
|----4-4-4-4-4--|----2-2-2-2-2--|------0-----0--|---------------|
|---------------|---------------|---------------|---------------|
|----4-4-4-4-4--|----2-2-2-2-2--|----1---2-4----|-1-----4-2-----|
|-2-------------|---------------|-2-------------|-2-4s6-6-4p2---|
|---------------|-2-------------|--------4------|------------4-|

baby's in the back seat still fast asleep dreamin' of better days  
|---------------|---------------|---------------|---------------|
|----4-4-4-4-4--|----2-2-2-2-2--|---------------|------0-2-0----|
|---------------|---------------|----4-4-4------|---------------|
|----4-4-4-4-4--|----2-2-2-2-2--|----4-4-4-4-1--|-2--4-------4--|
|-2-------------|---------------|-2-------------|---------------|
|---------------|-2-------------|---------------|-4-------------|

  I don't want to call you but you're all I have to turn to
|---------------|---------------|---------------|---------------|
|----4-4-4-4-4--|----2-2-2-2-2--|------0-----0--|---------------|
|---------------|---------------|---------------|---------------|
|----4-4-4-4-4--|----2-2-2-2-2--|----1---2-4----|-1---------4---|
|-2-------------|---------------|-2-------------|-2-2-2-4s6---6-|
|---------------|-2-------------|--------4------|---------------|

What do you say when it's all gone away?
|---------------|---------------|
|-------------0-|-------------0-|
|-----1---------|---------0-----|
|---------4-----|-----2---------|
|---------------|---------------|
|-0-------------|-2-------------|
[ Tab from: http://www.guitartabs.cc/tabs/n/norah_jones/humble_me_tab.html ]
baby I didn't mean to hurt you
|---------------|---------------|
|-------------0-|-----0-------0-|
|-----------3---|---------------|
|-------4-------|---------------|
|-24s6---------|---------6-----|
|---------2-----|-4-------------|

truth spoke in whispers will tear you apart
|---------------|---------------|
|-------------0-|-------------0-|
|---------1-----|---------0-----|
|---------------|-----2---------|
|-----2---------|---------------|
|-0-------------|-2-------------|

no matter how hard you resist it
|---------------|---------------|
|-------------0-|------0-0-0----|
|-----------3---|---------------|
|-------4-------|---------------|
|-24s6---------|-------6-6-----|
|---------2-----|-4-------------|

it never rains when you want it to                You humble me
|---------------|---------------|---------------|
|----2------2-2-|---0-----------|---------------|
|------4----4-4-|-----2h4--1----|---------3---4-|
|---------------|---------------|-----2-4-4-4---|
|-0-------------|---------------|---4-----------|
|---------4-----|-2--------0----|-2-------------|

Chorus:
Lord                you humble me Lord
|---------------|---------------|---------------|---------------|
|----4-4-4-4-4--|----2-2-2-2-2--|--------0------|--------0------|
|---------------|---------------|------4---4----|------4---4----|
|----4-4-4-4-4--|----2-2-2-2-2--|----7-------7--|----7-------6--|
|-2-------------|---------------|---------------|---------------|
|---------------|-2-------------|-4-------------|-4-------------|

I'm on my         knees           empty             you humble me
|---------------|---------------|---------------|---------------|
|--------0------|---------------|---------------|---------------|
|------4---4----|------4------4-|---------------|-4-------------|
|----7-------7--|----4---4------|------2-4-2----|---------------|
|---------------|-2-------------|----4-------4--|---------------|
|-4-------------|---------------|-2-------------|---------------|

Lord                you humble me Lord
|---------------|---------------|---------------|---------------|
|----4-4-4-4-4--|----2-2-2-2-2--|--------0------|--------0------|
|---------------|---------------|------4---4----|------4---4----|
|----4-4-4-4-4--|----2-2-2-2-2--|----7-------7--|----7-------6--|
|-2-------------|---------------|---------------|---------------|
|---------------|-2-------------|-4-------------|-4-------------|

  please, please, please       forgive me
|---------------|---------------|---------------|---------------|
|--------0------|---------------|---------------|---------------|
|----1-------1--|--------4------|---------------|-4-------------|
|------4---4----|----4-4---4-4--|------2-4-2----|---------------|
|---------------|-2-------------|----4-------4--|---------------|
|-0-------------|---------------|-2-------------|---------------|

The remaining verses and chorus can be played similar to the tab above:

Baby Teresa she's got your eyes 
I see you all the time 
when she asks about her daddy 
I never know what to say

Note: In the previous verse, there is a variation on the last bar:

|------------------|---
|------------------|---
|------------------|---
|-------4-6--------|---
|-2-4s6----5p4-5p4-|-2-
|-----------------|---

Heard you kicked the bottle 
and helped to build the church 
you carry an honest wage 
is it true you have somebody keeping you company ? 

What do you say 
when it's all gone away ? 
baby I didn't mean to hurt you 
truth spoke in whispers will tear you apart 
no matter how hard you resist it 
it never rains when I want it to 

You humble me Lord 
humble me Lord 
I'm on my knees empty 
you humble me Lord 
you humble me Lord 
please, please, please forgive me

you humble me.
Comments