Nora - Nobody Takes Pictures Of The Drummer Chords & Tabs

 

Nobody Takes Pictures Of The Drummer Chords & Tabs

Nora Chords & Tabs

Version: 1 Type: Tab 0 ratings
1 star 2 stars 3 stars 4 stars 5 stars
comments

Nobody Takes Pictures Of The Drummer Tab

-------------------------------------------------------------------------------
             Nobody takes pictures of the drummer - NORA
-------------------------------------------------------------------------------

rock out kiddies


Drop D tuning




Intro

e|---------------------------------------------------------|
B|-------15-15--------9---9-------12-12-------11-11--------|
G|-------18-18-------12--12-------15-15-------14-14--------|
D|-0-0----------0-0----------0-0---------0-0---------------|   
A|-0-0----------0-0----------0-0---------0-0---------------|
E|-0-0----------0-0----------0-0---------0-0---------------|

e|-----------------------------------------------------------------------------------------------------------|
B|-----------------------------------------------------------------------------------------------------------|
G|-----------------------------------------------------------------------------------------------------------|
D|-0-0-1-0-1-0--0-0-3-2-3-2--0-0-1-0-1-0--0-0-3-2-3-2--0-0-1-0-1-0--0-0-3-2-3-2--0-0-1-0-1-0--0-0-3-2-3-2----|
A|-0-0-1-0-1-0--0-0-3-2-3-2--0-0-1-0-1-0--0-0-3-2-3-2--0-0-1-0-1-0--0-0-3-2-3-2--0-0-1-0-1-0--0-0-3-2-3-2----|
E|-0-0-1-0-1-0--0-0-3-2-3-2--0-0-1-0-1-0--0-0-3-2-3-2--0-0-1-0-1-0--0-0-3-2-3-2--0-0-1-0-1-0--0-0-3-2-3-2----|
[ Tab from: http://www.guitartabs.cc/tabs/n/nora/nobody_takes_pictures_of_the_drummer_tab.html ]
e|-----------------------------------------------------------------------------------------------------------|
B|-----------------------------------------------------------------------------------------------------------|
G|-----------------------------------------------------------------------------------------------------------|
D|-0-0-1-0-1-0--0-0-3-2-3-2--0-0-1-0-1-0--0-0-3-2-3-2--0-0-1-0-1-0--0-0-3-2-3-2--0-0-1-0-1-0--0-0-3-2-3-2----|
A|-0-0-1-0-1-0--0-0-3-2-3-2--0-0-1-0-1-0--0-0-3-2-3-2--0-0-1-0-1-0--0-0-3-2-3-2--0-0-1-0-1-0--0-0-3-2-3-2----|
E|-0-0-1-0-1-0--0-0-3-2-3-2--0-0-1-0-1-0--0-0-3-2-3-2--0-0-1-0-1-0--0-0-3-2-3-2--0-0-1-0-1-0--0-0-3-2-3-2----|
   x x          x x          x x          x x          x x          x x          x x          x x

e|----------------------------------------------|
B|----------------------------------------------|
G|------------------------------------------2---|
D|------------------------------------------2---|  4X
A|------------------------------------------0---|
D|-0-0-1-0-1-0--0-0-3-2-3-2--0-0-1-0-1-0--------|

Back to Intro


e|--12-------12------------12------12----12------------12---------|
B|--------------11---11-------11------------11---11-------11------|
G|-----------------9-------------9-------------9-------------9----|	4X
D|----------------------------------------------------------------|
A|----------------------------------------------------------------|
D|----------------------------------------------------------------|

e|--------------|
B|--------------|
G|--------------|
D|-0-1-0-2-1-0--|   8X
A|-0-1-0-2-1-0--|
D|-0-1-0-2-1-0--|
       x     x 
e|---------------------------------------------------------------------------------|
B|---------------------------------------------------------------------------------|
G|---------------------------------------------------------------------------------|
D|-3-7-2-3--3-7-2-3---3-7-2-3--3-7-2-3-2-3/4/3--3-7-2-3--3-7-2-3--3-7-2-3-2-3/4/3--|
A|-3-7-2-3--3-7-2-3---3-7-2-3--3-7-2-3-2-3/4/3--3-7-2-3--3-7-2-3--3-7-2-3-2-3/4/3--|
D|-3-7-2-3--3-7-2-3---3-7-2-3--3-7-2-3-2-3/4/3--3-7-2-3--3-7-2-3--3-7-2-3-2-3/4/3--|
				       x                     x
e|----------------------------------------------|
B|----------------------------------------------|
G|----------------------------------2-2-2-2-----|
D|-0--------------------------------2-2-2-2-----|  4X
A|-0--3/2/0---0--3/2/0---0--3/2/0---0-0-0-0-----|
D|-0--------3----------3----------3-------------|

Back to Into

The End
it got kinda messed up cause i copied and pasted it ,
but whatever.. figure it out
Comments