Noori - Nsihaan Chords & Tabs

 

Nsihaan Chords & Tabs

Noori Chords & Tabs

Version: 1 Type: Tab 0 ratings
1 star 2 stars 3 stars 4 stars 5 stars
comments

Nsihaan Tab

Tuning: Standard (EADGBe - low to high)



Symbols:
b - bend
p - pull off
/ - slide higher
\ - slide lower


Intro + Main riff (play wen da song goes dhoondo gey sitarey... till doob jao ge)
|--------------------------------------||
|--------------------------------------||
|---99--\-12-12-12-\-14-14-x----777----||  x4
|---99--\-12-12-12-\-14-14-x----777----|| 
|---77--\-10-10-10-\-12-12-x----555----||
|--------------------------------------|| 






FILL + START OF SOLO 
|-----------------------------||
|-----------------------------||
|-----12-\-14------12-\-14----||
|-----12-\-14------12-\-12----||
|-----10-\-12------10-\-14----||
|-----------------------------||


RAATOUN K ANDHEROUN MEIN JUB .... pplay this CCLEAN
[ Tab from: http://www.guitartabs.cc/tabs/n/noori/nsihaan_tab.html ]
|--------------------------||
|--------------------------||
|--------------------------||
|--------5-4-5-7 5 4 5-----||
|------7-------------------||
|--------------------------||





PLAY THis ON LIKHO JO NAYEE DASTAAN , 



|-------||
|-------||
|---5---||
|---5---||
|---3---||
|-------||


SOLO (PLAY AFTER FIILL)


|------------------------------15p14p12----------15p14p12    15b17 12------||
|---15b16 15b16 15b17 15p14p12----------15p14p12---------------------------||
|--------------------------------------------------------------------------||
|--------------------------------------------------------------------------||
|--------------------------------------------------------------------------||
|--------------------------------------------------------------------------||

END 

|---------------------------------||
|---------------------------------||
|---99---11 11---12-12--14-14-14--||  x5
|---99---11-11---12-12--14-14-12--|| 
|---77---9--9----10-10--12-12-12--||
|---------------------------------|| 

TRY LISENIN TO DA SONG N IMPROVISE 
N DO POST YOUR COMMENTS!!!!
AHSAAN
Comments