Noori - Dil Ki Qasam Chords & Tabs

 

Dil Ki Qasam Chords & Tabs

Noori Chords & Tabs

Version: 1 Type: Tab

Dil Ki Qasam Tab

 tabbed by saad ali

 e---------------------------------------------|
 b---------------------------------------------|
 g----------7-7--9-9-9--5--7-------------------|
 d---------------------------------------------|
 a---------------------------------------------|
 e---------------------------------------------|

 e---------------------------------------------|
 b---------------------------------------------|
 g----------7-7--9-9-9--5--7-------------------|
 d---------------------------------------------|
 a---------------------------------------------|
 e---------------------------------------------|
[ Tab from: http://www.guitartabs.cc/tabs/n/noori/dil_ki_qasam_tab.html ]
 e---------------------------------------------|
 b---------------------------------------------|
 g----------7-7--9-9-9--5--7s12--7--4-2-4------|
 d---------------------------------------------|
 a---------------------------------------------|
 e---------------------------------------------|

 e---------------------------------------------|
 b---------------------------------------------|
 g----------7-7--9-9-9--5--7-------------------|
 d---------------------------------------------|
 a---------------------------------------------|
 e---------------------------------------------|

 e---------------------------------------------|
 b---------------------------------------------|
 g----------7-7--9-9-9--5--7-------------------|
 d---------------------------------------------|
 a---------------------------------------------|
 e---------------------------------------------|

 e---------------------------------------------|
 b---------------------------------------------|
 g----------7-7--9-9-9--5--7s12--7--4-2-0-2-5--|
 d---------------------------------------------|
 a---------------------------------------------|
 e---------------------------------------------|