Noori - Dil Ki Qasam Chords & Tabs

 

Dil Ki Qasam Chords & Tabs

Noori Chords & Tabs

Version: 1 Type: Bass Tab 0 ratings
1 star 2 stars 3 stars 4 stars 5 stars
comments

Dil Ki Qasam Bass Tab

Intro:
G|---------------------------------|
D|---------------------------------|
A|---------------------------------|
E|---3--8--1--3---5--1--3---5--5---|

                               (2x)
G|---------------------------------|
D|---------------------------------|
A|---------------------------------|
E|---3--3---1--1-------------------|
[ Tab from: http://www.guitartabs.cc/tabs/n/noori/dil_ki_qasam_btab.html ]
G|---------------------------------|
D|---------------------------------|
A|---------------------------------|
E|---5--1---5--1-------------------|

G|---------------------------------|
D|---------------------------------|
A|---------------------------------|
E|---8--1--3-----------------------|


G|---------------------------------|
D|---------------------------------|
A|---------------------------------|
E|---1--3---5--3---1--3---5--------|


G|---------------------------------|
D|---------------------------------|
A|---------------------------------|
E|---1--3---8--1---1--3---1--------|
Comments