Noori - Dil Bolay Chords & Tabs

 

Dil Bolay Chords & Tabs

Noori Chords & Tabs

Version: 1 Type: Bass Tab 0 ratings
1 star 2 stars 3 stars 4 stars 5 stars
comments

Dil Bolay Bass Tab

G|------------------------------------------------------------------|
D|------------------------------------------------------------------|
A|------------------------------------------------------------------|
E|----------------5---5---5-----------------------7---7------7------|
    tun doley jab bar bar bar        dil boley ab aar hai ya paar

G|------------------------------------------------------------------|
D|------------------------------------------------------------------|
A|------------------------------------------------------------------|
E|--------------------5------5----5----------------5----5----5------|
    jo nahi jaaney wo sun le mere yaar         aab mano nahi haar

G|------------------------------------------------------------------|
D|------------------------------------------------------------------|
A|------------------------------------------------------------------|
E|---5---5---5---5---5---5---5-----7---7---7---7---7---7---7---7----|
    yehi to teri apni hai zameen  kiyun na degi ab tuj ko ye qaraar

G|------------------------------------------------------------------|
D|------------------------------------------------------------------|
A|------------------------------------------------------------------|
E|------------------5------5----2-----------------------5---5---5---|
    jo nahi jana wo sun le mere yaar       aab mano nahi haaaaaar


Same Loop For Solo 1

[SOLO 1]

G|------------------------------------------------------------------|
D|------------------------------------------------------------------|
A|---0----------------------------------0---------------------------|
E|------------------------------------------------------------------|
     ab chahey mera dil such bolna      thum jai zindagi na dolna

G|------------------------------------------------------------------|
D|------------------------------------------------------------------|
A|---5-----------------------7---9---11---13------------------------|
E|------------------------------------------------------------------|
     maa meree maa muj ko na chorna

G|------------------------------------------------------------------|
D|------------------------------------------------------------------|
A|---4--------5-----------------------2-----------------------------|
E|------------------------2-----------------------------------------|
     mitt jai bandagi per haar kar ab too kiyun jiey
[ Tab from: http://www.guitartabs.cc/tabs/n/noori/dil_bolay_btab.html ]
G|------------------------------------------------------------------|
D|------------------------------------------------------------------|
A|---5--------------------0--------------2--------------------------|
E|------------0-----------------------------------------------------|
     beet jai zindagi per dil tera kiyun jaagey na

G|------------------------------------------------------------------|
D|------------------------------------------------------------------|
A|---5------------------2-------------------------------------------|
E|------------------------------------------------------------------|
     teri nayya hai uus paar

[REPEAT CHORUS]

[STENZA 2]

lagey teri aas jab dobna
dhal jai gham to na bholna
gum jai too kahin to raahon ka pata too dhonndey
chup jai har khusi per aarzoo too chorey na
tera rona hai bekaar

[REPEAT CHORUS]

Same loop for Solo 2

[SOLO 2]

[STENZA 3]

aab nahi thum sakey wo tofaan jo jaaga tere mun mein
aab nahi mar sakey teri dhaal hai ab tera imaan
tujey banna hai insaan
kabhi na kabhi to jaagey josh tera
loot le ke ye ghari anmol
kabhi na kabhi to jhoomey man tera
jhoom le ke ye khush ke hein bol
tere tun mein tere man mein
har tarang main baj raha dhol
too hai aik heera anmol

[LAST CHORUS]

G|------------------------------------------------------------------|
D|------------------------------------------------------------------|
A|-----------------5---5---5----------------------------------------|
E|---------------------------------------------0------0------0------|
     tun doley jab bar bar bar       dil boley ab aar hai ya paar
G|------------------------------------------------------------------|
D|------------------------------------------------------------------|
A|---------------------5------5----5--------------------5---5---5---|
E|------------------------------------------------------------------|
     jo nahi jaaney wo sun le mere yaar   aab mano nahi haar
G|------------------------------------------------------------------|
D|------------------------------------------------------------------|
A|-----------------5--5---5----------0---0---0---0---0---0---0---0--|
E|------------------------------------------------------------------|
    yehi to teri apni hai zameen  kiyun na degi ab tuj ko ye qaraar
G|------------------------------------------------------------------|
D|------------------------------------------------------------------|
A|---5---5---5---5---5---5---5---5---5------------------5---5---5---|
E|------------------------------------------------------------------|
     jo nahi jana wo sun le mere yaar     aab mano nahi haaaaaar






Usman Khan aka Mani..............Sekcmonks@Hotmail.com
Comments