Nonpoint - What A Day Chords & Tabs

 

What A Day Chords & Tabs

Nonpoint Chords & Tabs

Version: 3 Type: Tab 0 ratings
1 star 2 stars 3 stars 4 stars 5 stars
comments

What A Day Tab

   
Nonpoint - What A Day
Tuning - C-G-C-F-A-D
tabbed by Emilio (emiliograveran@hotmail.com

(clean with flanger)
|---------------------------------------------------------------------|
|---------------------------------------------------------------------|
|---------------------------------------------------------------------|
|------------10-------------------12---------------10-----------------| 
|-----10/12---------12b14r12----------------10/12---------10----------|
|--0-------------0-------------0------0-0--------------0-------11-----|

|---------------------------------------------------------------------|
|---------------------------------------------------------------------|
|---------------------------------------------------------------------|
|-------------10-------------------12-------------10------------------| 
|------10/12---------12b14r12--------------10/12-----------10---------|
|-0-0------------0-------------0------0-0-------------0---------------|

(with distortion)
|---------------------------------------------------------------------|
|---------------------------------------------------------------------|
|---------------------------------------------------------------------|
|-----------10b12-------------------12-------------10b12--------------| 
|----10/12------------12b14r12--------------10/12-------------10------|
|--0---------------0-------------0------0-0---------------0-------11--|

|---------------------------------------------------------------------|
|---------------------------------------------------------------------|
|---------------------------------------------------------------------|
|------------10b12-------------------12-------------10b12-------------| 
|-----10/12------------12b14r12--------------10/12---------11--x8-----|
|-0-0---------------0-------------0------0-0--------------------------|

(with distortion)
|---------------------------------------------------------------------|
|---------------------------------------------------------------------|
|---------------------------------------------------------------------|
|-8-7-0-7--10-10-10-10-7-12---8-7-0-3-5-5-5-5-3-----------------------| 
|-8-7-0-7--10-10-10-10-7-12---8-7-0-3-5-5-5-5-3-----------------------|
|-8-7-0-7--10-10-10-10-7-12---8-7-0-3-5-5-5-5-3-----------------------|

|---------------------------------------------------------------------|
|---------------------------------------------------------------------|
|---------------------------------------------------------------------|
|-8-7-0-7--10-10-10-10-7-12---8-7-0-3/5-5\3---------------------------| 
|-8-7-0-7--10-10-10-10-7-12---8-7-0-3/5-5\3---------------------------|
|-8-7-0-7--10-10-10-10-7-12---8-7-0-3/5-5\3---------------------------|

|---------------------------------------------------------------------|
|---------------------------------------------------------------------|
|---------------------------------------------------------------------|
|-8-7-0-7--10-10-10-10-7-12---8-7-0-3-5-5-5-5-3-----------------------| 
|-8-7-0-7--10-10-10-10-7-12---8-7-0-3-5-5-5-5-3-----------------------|
|-8-7-0-7--10-10-10-10-7-12---8-7-0-3-5-5-5-5-3-----------------------|
|---------------------------------------------------------------------|

|---------------------------------------------------------------------|
|---------------------------------------------------------------------|
|-8-7-0-7--10-10-10-10-7-12---8-7-0-7/8-8/10-10-----------------------| 
|-8-7-0-7--10-10-10-10-7-12---8-7-0-7/8-8/10-10-----------------------|
|-8-7-0-7--10-10-10-10-7-12---8-7-0-7/8-8/10-10-----------------------|

(with distortion)
|---------------------------------------------------------------------|
|---------------------------------------------------------------------|
|-13--12--------------------------------------------------------------|
|---------10---5h6-6-6-6p5--------------------------------------------| 
|-11--10-------5h6-6-6-6p5---x4---------------------------------------|
|--------------5h6-6-6-6p5--------------------------------------------|

then do 4 short pick scrapes on the low C string (listen to the song)

(clean with flanger)
|---------------------------------------------------------------------|
|---------------------------------------------------------------------|
|---------------------------------------------------------------------|
|-----10---------------10---------------------------------------------| 
|---------11---------------11--10---x4--------------------------------|
|--0----------------0-------------------------------------------------|

|---------------------------------------------------------------------|
|---------------------------------------------------------------------|
|---------------------------------------------------------------------|
|------------10-------------------12---------------10-----------------| 
|-----10/12---------12b14r12----------------10/12---------10----------|
|--0-------------0-------------0------0-0--------------0-------11-----|

|---------------------------------------------------------------------|
|---------------------------------------------------------------------|
|---------------------------------------------------------------------|
|-------------10-------------------12-------------10------------------| 
|------10/12---------12b14r12--------------10/12-----------10---------|
|-0-0------------0-------------0------0-0-------------0---------------|

(distortion)
|---------------------------------------------------------------------|
|---------------------------------------------------------------------|
|---------------------------------------PH------------PH--------------|
|-----------10b12---------10b12---------10b12---------10b12-----------| 
|-----10/12---------10/12--------10/12---------10/12----------11x8---|
|--0-------------0-------------0-------------0------------------------|

|---------------------------------------------------------------------|
|---------------------------------------------------------------------|
|---------------------------------------------------------------------|
|-8-7-0-7--10-10-10-10-7-12---8-7-0-3-5-5-5-5-3-----------------------| 
|-8-7-0-7--10-10-10-10-7-12---8-7-0-3-5-5-5-5-3-----------------------|
|-8-7-0-7--10-10-10-10-7-12---8-7-0-3-5-5-5-5-3-----------------------|

|---------------------------------------------------------------------|
|---------------------------------------------------------------------|
|---------------------------------------------------------------------|
|-8-7-0-7--10-10-10-10-7-12---8-7-0-3/5-5\3---------------------------| 
|-8-7-0-7--10-10-10-10-7-12---8-7-0-3/5-5\3---------------------------|
|-8-7-0-7--10-10-10-10-7-12---8-7-0-3/5-5\3---------------------------|
[ Tab from: http://www.guitartabs.cc/tabs/n/nonpoint/what_a_day_tab_ver_3.html ]
|---------------------------------------------------------------------|
|---------------------------------------------------------------------|
|---------------------------------------------------------------------|
|-8-7-0-7--10-10-10-10-7-12---8-7-0-3-5-5-5-5-3-----------------------| 
|-8-7-0-7--10-10-10-10-7-12---8-7-0-3-5-5-5-5-3-----------------------|
|-8-7-0-7--10-10-10-10-7-12---8-7-0-3-5-5-5-5-3-----------------------|

|---------------------------------------------------------------------|
|---------------------------------------------------------------------|
|---------------------------------------------------------------------|
|-8-7-0-7--10-10-10-10-7-12---8-7-0-7/8-8/10-10-----------------------| 
|-8-7-0-7--10-10-10-10-7-12---8-7-0-7/8-8/10-10-----------------------|
|-8-7-0-7--10-10-10-10-7-12---8-7-0-7/8-8/10-10-----------------------|

|---------------------------------------------------------------------|
|---------------------------------------------------------------------|
|-13--12--------------------------------------------------------------|
|---------10---5h6-6-6-6p5--------------------------------------------| 
|-11--10-------5h6-6-6-6p5---x4---------------------------------------|
|--------------5h6-6-6-6p5--------------------------------------------|

|---------------------------------------------------------------------|
|---------------------------------------------------------------------|
|---------------------------------------------------------------------|
|-X-X--5/6-6-6-6\5-5-5-5/6-6-6-6\5-5-5--------------------------------| 
|-X-X--5/6-6-6-6\5-5-5-5/6-6-6-6\5-5-5--------------------------------|
|-X-X--5/6-6-6-6\5-5-5-5/6-6-6-6\5-5-5--------------------------------|

|---------------------------------------------------------------------|
|-8/9-9-9-9\8-8-8-8/9-9-9-9\8-8-8-------------------------------------|
|-7/8-8-8-8\7-7-7-7/8-8-8-8\7-7-7-------------------------------------|
|-5/6-6-6-6\5-5-5-5/6-6-6-6\5-5-5-------------------------------------| 
|-5/6-6-6-6\5-5-5-5/6-6-6-6\5-5-5-------------------------------------|
|-5/6-6-6-6\5-5-5-5/6-6-6-6\5-5-5-------------------------------------|

|---------------------------------------------------------------------|
|-11-11-11-11-11-11-11-11-13-13-13-13-13-13-13-13---------------------|
|-10-10-10-10-10-10-10-10-12-12-12-12-12-12-12-12---------------------|
|--8--8--8--8--8--8--8--8-10-10-10-10-10-10-10-10---------------------|
|--8--8--8--8--8--8--8--8-10-10-10-10-10-10-10-10---------------------|
|--8--8--8--8--8--8--8--8-10-10-10-10-10-10-10-10---------------------|

|---------------------------------------------------------------------|
|---------------------------------------------------------------------|
|---------------------------------------------------------------------|
|-8-7-0-7--10-10-10-10-7-12---8-7-0-3-5-5-5-5-3-----------------------| 
|-8-7-0-7--10-10-10-10-7-12---8-7-0-3-5-5-5-5-3-----------------------|
|-8-7-0-7--10-10-10-10-7-12---8-7-0-3-5-5-5-5-3-----------------------|

|---------------------------------------------------------------------|
|---------------------------------------------------------------------|
|---------------------------------------------------------------------|
|-8-7-0-7--10-10-10-10-7-12---8-7-0-3/5-5\3---------------------------| 
|-8-7-0-7--10-10-10-10-7-12---8-7-0-3/5-5\3---------------------------|
|-8-7-0-7--10-10-10-10-7-12---8-7-0-3/5-5\3---------------------------|

|---------------------------------------------------------------------|
|---------------------------------------------------------------------|
|---------------------------------------------------------------------|
|-8-7-0-7--10-10-10-10-7-12---8-7-0-7/8-8/10-10-----------------------| 
|-8-7-0-7--10-10-10-10-7-12---8-7-0-7/8-8/10-10-----------------------|
|-8-7-0-7--10-10-10-10-7-12---8-7-0-7/8-8/10-10-----------------------|

|---------------------------------------------------------------------|
|---------------------------------------------------------------------|
|---------------------------------------------------------------------|
|-8-7-0-7--10-10-10-10-7-12---8-7-0-3-5-5-5-5-3-----------------------| 
|----------10-10-10-10-7-12-----------5-5-5-5-3-----------------------|
|----------10-10-10-10-7-12-----------5-5-5-5-3-----------------------|

|---------------------------------------------------------------------|
|---------------------------------------------------------------------|
|---------------------------------------------------------------------|
|-8-7-0-7--10-10-10-10-7-12---8-7-0-3-3/5-5\3-------------------------| 
|----------10-10-10-10-7-12-----------3/5-5\3-------------------------|
|----------10-10-10-10-7-12-----------3/5-5\3-------------------------|

|---------------------------------------------------------------------|
|---------------------------------------------------------------------|
|---------------------------------------------------------------------|
|-8-7-0-7--10-10-10-10-7-12---8-7-0-3-5-5-5-5-3-----------------------| 
|----------10-10-10-10-7-12-----------5-5-5-5-3-----------------------|
|----------10-10-10-10-7-12-----------5-5-5-5-3-----------------------|

|---------------------------------------------------------------------|
|---------------------------------------------------------------------|
|---------------------------------------------------------------------|
|-8-7-0-7--10-10-10-10-7-12---8-7-0-7-7/8-8/10-10---------------------| 
|----------10-10-10-10-7-12-----------7/8-8/10-10---------------------|
|----------10-10-10-10-7-12-----------7/8-8/10-10---------------------|

|---------------------------------------------------------------------|
|---------------------------------------------------------------------|
|---------------------------------------------------------------------|
|------5/6-6-6-6\5-x-x-5/6-6-6-6\5-5-5--------------------------------| 
|------5/6-6-6-6\5-x-x-5/6-6-6-6\5-5-5--------------------------------|
|------5/6-6-6-6\5-x-x-5/6-6-6-6\5-5-5--------------------------------|

|---------------------------------------------------------------------|
|-8/9-9-9-9\8-8-8-8/9-9-9-9\8-8-8-------------------------------------|
|-7/8-8-8-8\7-7-7-7/8-8-8-8\7-7-7-------------------------------------|
|-5/6-6-6-6\5-5-5-5/6-6-6-6\5-5-5-------------------------------------| 
|-5/6-6-6-6\5-5-5-5/6-6-6-6\5-5-5-------------------------------------|
|-5/6-6-6-6\5-5-5-5/6-6-6-6\5-5-5-------------------------------------|

|---------------------------------------------------------------------|
|-11-11-11-11-11-11-11-11-13-13-13-13-13-13-13-13---------------------|
|-10-10-10-10-10-10-10-10-12-12-12-12-12-12-12-12---------------------|
|--8--8--8--8--8--8--8--8-10-10-10-10-10-10-10-10---------------------|
|--8--8--8--8--8--8--8--8-10-10-10-10-10-10-10-10---------------------|
|--8--8--8--8--8--8--8--8-10-10-10-10-10-10-10-10---------------------|

|---------------------------------------------------------------------|
|---------------------------------------------------------------------|
|---------------------------------------------------------------------|
|-8-7---0---3-5-5-5-3-------------------------------------------------| 
|-8-7---0---3-5-5-5-3-------------------------------------------------|
|-8-7---0---3-5-5-5-3-------------------------------------------------|

Comments