Nonpoint - What A Day Chords & Tabs

 

What A Day Chords & Tabs

Nonpoint Chords & Tabs

Version: 1 Type: Tab 2 ratings
1 star 2 stars 3 stars 4 stars 5 stars
comments

What A Day Tab

   
Author/Artist: NonPoint
Title: What a day
Transcribed by: Scooter
Email: staindysfunction@cs.com

Tuning C G C F A D

Intro: Clean tome with fanger, then switch to distortion, listen for change.

------------------------------------------------------------------------------
------------------------------------------------------------------------------
------------------7-----------------------------------------------------------
---8p7-10--8p7---------8p7-10--7----------------------------------------------
---------------10-------------------------------------------------------------
-0------------------00-----------10-------------------------------------------
 Chorus:                                                                      

------------------------------------------------------------------------------
------------------------------------------------------------------------------
-3-2-----33/5-55/7--3-2-------------------------------------------------------
-3-2-30--33/5-55/7--3-2-30--5555-333------------------------------------------
-1-0-30--11/3-33/5--1-0-30--5555-333------------------------------------------
-----30-----------------30--5555-333------------------------------------------
                                                                              
[ Tab from: http://www.guitartabs.cc/tabs/n/nonpoint/what_a_day_tab.html ]
-----------------|------|-----------------------------------------------------
-----------------|------|-----------------------------------------------------
--1p0------------|------|-----------------------------------------------------
------4---666/55-|------|-----------------------------------------------------
-------33-666/55-|------|-----------------------------------------------------
----------666/55-|-x-x-x|-----------------------------------------------------
                 Fill 1                                                       

-----------------|------------------------------------------------------------
-----------------|------------------------------------------------------------
-----------------|------------------------------------------------------------
---10-----10-----|------------------------------------------------------------
-----11-----11p10|------------------------------------------------------------
-0------0--------|------------------------------------------------------------
 Clean tone       Then back  to intro                                         

------------------------------------------------------------------------------
------------------------------------------------------------------------------
------------------------------------------------------------------------------
-666-55-666-55-666-55---------------------------------------------------------
-666-55-666-55-666-55--88888-1111111------------------------------------------
-666-55-666-55-666-55--88888-1111111------------------------------------------
                            thats 11 not 1                                    

Prity Easy song i8 probley missed some stuff or a note my me off but thats it
i knot its kinna jummpy and not labled very well but oh well.
Comments