Nonpoint - What A Day Chords & Tabs

 

What A Day Chords & Tabs

Nonpoint Chords & Tabs

Version: 3 Type: Bass Tab 0 ratings
1 star 2 stars 3 stars 4 stars 5 stars
comments

What A Day Bass Tab

Intro/ Verse
F-----------------------------------------
C-----12-------------------12----12-------
G--------11-10-----10-11-----------11-10--
C--0-------------12------------0----------
[ Tab from: http://www.guitartabs.cc/tabs/n/nonpoint/what_a_day_btab_ver_3.html ]
Chorus:
F------------------------------------------------------
C------------------------------------------------------
G------------------------------------------------------
C-8-7-0-0--0--8h10-10-8-8h12-12--8-7-0-0--0-3h5-5-5-3--

Verse 2
F--------------------------------------------
C-----12-------10-----h10-12-----12----------
G--------11-------h11---------------11-10----
C--0--------------------------0--------------
Comments