Nonpoint - Victim Chords & Tabs

 

Victim Chords & Tabs

Nonpoint Chords & Tabs

Version: 2 Type: Tab 0 ratings
1 star 2 stars 3 stars 4 stars 5 stars
comments

Victim Tab

   
#----------------------------------PLEASE NOTE--------------------------------#
#This file is the author's own work and represents their interpretation of the#
#song. You may only use this file for private study, scholarship, or research.#
#-----------------------------------------------------------------------------#
#-- File created with Instab - http://www.pconline.com/~smcarey/instab.html --#
#-----------------------------------------------------------------------------#

Author/Artist: Nonpoint
Title: Victim
Album: Statement
Transcribed by: Brandon McSorley
Email: DeathBlooms5o0@cs.com

This song is a great song and no one tabbed it, so i did.
Tuning is drop d- whole step down (C-G-C-F-A-D)

Intro (w/ distortion)
------------------------------------------------------------------------------|
------------------------------------------------------------------------------|
------------------------------------------------------------------------------|
-0----6p0-6p0----3p0-3h0--6p5-------------------------------------------------|
-0----6p0-6p0----3p0-3h0--6p5-------------------------------------------------|
-0----6p0-6p0----3p0-3h0--6p5-------------------------------------------------|

Verse (w/ autowah)
----------------------------------|-------------------------------------------|
----------------------------------|-------------------------------------------|
----------------------------------|-------------------------------------------|
--------7p5--8---7p5--5\3--3h5 5/7|------------7p5--8---7p5--5\3--3\2--2--2---|
-0-0-0----------------------------|---0-0-0-----------------------------------|
----------------------------------|-------------------------------------------|
[ Tab from: http://www.guitartabs.cc/tabs/n/nonpoint/victim_tab_ver_2.html ]
Interlude (Distortion)
------------------------------------------------|-----------|------------|----|
------------------------------------------------|-----------|------------|----|
---------7-7-7/8-----12-12-12\11-----7-7-7/8----|14-14-14-14|-----7-7-7/8|-7--|
----0-0--x-x-x/x-0-0-x--x--x--x--0-0-x-x-x-x-0-0|x--x--x--x-|-0-0-x-x-x-x|-x--|
----0-0--5-5-5/6-0-0-10-10-10\9--0-0-5-5-5/6-0-0|12-12-12-12|-0-0-5-5-5/6|-5--|
----0-0----------0-0-------------0-0---------0-0|0--0--0--0-|-0-0--------|----|
                                                                         |x8
Interlude 2 (Distortion)
--------------------------------|
--------------------------------|
--------------------------------|
---7------5----3vvv---3--3------|
---7-x16--5-x8--------3--3------|
---7------5-----------3--3------|

Pre-Chorus (Distortion)
------------------------------|-----------------------------------------------|
------------------------------|-----------------------------------------------|
------------------------------|-----------------------------------------------|
-0--6p0-6p0--x-3p0-3h0--x-6p5-|--0--6p0-6p0--5*--3p0-3h0--x-6p5---------------|
-0--6p0-6p0--x-3p0-3h0--x-6p5-|--0--6p0-6p0------3p0-3h0--x-6p5---------------|
-0--6p0-6p0--x-3p0-3h0--x-6p5-|--0--6p0-6p0------3p0-3h0--x-6p5---------------|

Interlude (Distortion)
-------------------|------------------|----------------|--------------------------|
-------------------|---------------9--|----------------|--------------------------|
---------7-7-7-7/8-|--------7-7--7----|----------------|--7-----------------------|
-0-0-0-0-x-x-x-x-x-|0-0-0-0-x-x-------|----------------|--x-----6-----5-----------|
-0-0-0-0-5-5-5-5-6-|0-0-0-0-5-5-------|--0-0-0---0-0-0-|--5-----6-----5-----------|
-0-0-0-0-----------|0-0-0-0-----------|--0-0-0---0-0-0-|--------6-----5-----------|
p.m. . .            . . .

Bridge (Slight Distortion)
--------------------|---------------------------------|------------------------|
--------------------|---------------------------------|------------------------|
--------------------|---------------------------------|------------------------|
-------7----------7-|---------7-----------7-----------|------7--------7--------|
----5----------5----|------5-----------5-----0-0-0-0--|---5--------5-----7b8r7-|
-5----------5-------|---5-----------5-----------------|5--------5--------------|
p.m.                                         . . . .

------------------------------------------------|
------------------------------------------------|
------------------------------------------------|
-------7------------7------------5---------3--3-|
----5-----5------5-----5------3-----3------3--3-|
-5------------5------------3-----------3---3--3-|
Comments