Nonpoint - Reward Chords & Tabs

 

Reward Chords & Tabs

Nonpoint Chords & Tabs

Version: 1 Type: Tab 0 ratings
1 star 2 stars 3 stars 4 stars 5 stars
comments

Reward Tab

Band- Nonpoint
Song- Reward

Wah Riff
      rock the wah pedal with each note   
D|---------------------------------------||
A|---------------10----------------------||
F|-------10--12------------10--12--(12)*-||4x
C|----12---------------12----------------||(bass comes in 3rd time)
G|---------------------------------------||
C|---------------------------------------||
                         *extra note implied by another 
                           rock of the wah.


-----------------------------------------------------------------------
Main Riff  0:15
D|----------------------------------------------------------------||
A|----------------------------------------------------------------||
F|----------------------------------------------------------------||
C|-------------------------5--3-----------------------------------||3x
G|--0-----5h6---0---3--0---5--3----0----5h6---0---3--3------------||
C|--0-----5h6---0---3--0-----------0----5h6---0---3--3------------||


4th time                                        
D|----------------------------------------------------------------||
A|----------------------------------------------------------------||
F|-------------------------5--------------------------------------||
C|-------------------------5--------------------------------------||
G|--0-----5h6---0---3--0------0---3---7--8--7--3--0---------------||
C|--0-----5h6---0---3--0------0---3---7--8--7--3--0---------------||
                              pm.................

-----------------------------------------------------------------------
Bridge
   0:32
D|---------------------------------------------------||
A|--10h11--10--------------10--10h11-------------10--||
F|-------------10------10------------10------10------||
C|-----------------12--------------------12----------||
G|---------------------------------------------------||
C|---------------------------------------------------||




D|--------------------------------||
A|--10h11-10------------10---10h11||
F|-----------10-----10------------||
C|---------------12---------------||
G|--------------------------------||
C|--------------------------------||

-----------------------------------------------------------------------
[ Tab from: http://www.guitartabs.cc/tabs/n/nonpoint/reward_tab.html ]
Chorus
 0:39
D|----------------------------------------------------------------||
A|----------------------------------------------------------------||
F|----------------------------------------------------------------||
C|----------------------------------------------------------------||
G|--0-0--0------0-0--0--0/5--5---0-0--0------0-0--0--0/5--5-------||
C|--0-0--0------0-0--0----0--0---0-0--0------0-0--0----0--0-------||
 pm heavily...........           ..................

D|------------------------------------------------------||
A|--10h11--10--------------10--10h11-------------10-----||
F|-------------10------10------------10------10---------||back to start
C|-----------------12--------------------12-------------||of chorus
G|------------------------------------------------------||5x total
C|------------------------------------------------------||

Back to Wah riff for 2x
Main Riff
Bridge
Chorus
Outro

Outro
   2:14
D|-----------------------------------||
A|-----------------------------------||
F|-----------------------------------||
C|-----------------------------------||
G|--0--0----0--0----0--0----0--0--0--||
C|--0--0----0--0----0--0----0--0--0--||


D|--------------------------------------------------------||
A|--------------------------------------------------------||
F|--------------------------------------------------------||
C|--------------------------------------------------------||
G|--0-0-0-0--12---0-0-0-0--15---0-0-0-0--10---0-0-0-0--12-||
C|--0-0-0-0--12---0-0-0-0--15---0-0-0-0--10---0-0-0-0--12-||


D|----------------------------------------------------------------||
A|----------------------------------------------------------------||
F|----------------------------------------------------------------||
C|----------5/7-----------10/12----------7/9----------5/7---------||
G|--0-0-0-0-3/5---0-0-0-0-8/10---0-0-0-0-5/7--0-0-0-0-3/5---------||
C|--0-0-0-0-------0-0-0-0--------0-0-0-0------0-0-0-0-------------||


D|----------------------------------------------------------------||
A|----------------------------------------------------------------||
F|----------------------------------------------------------------||
C|----------------------------------------------------------------||
G|----------------------------------------------------------------||
C|--3-3-3-3-3-3-3-3-3-3-3-3-10-10-10-10-10-10-10-10-10-10-10-10---||

Variations on Chorus riff thru till end...
Comments