Nonpoint - My Own Sake Chords & Tabs

 

My Own Sake Chords & Tabs

Nonpoint Chords & Tabs

Version: 1 Type: Tab 0 ratings
1 star 2 stars 3 stars 4 stars 5 stars
comments

My Own Sake Tab

   
Band- Nonpoint
Song- My Own Sake

Tuned Down 1 full step, in Drop D
Hey, this is number 2!  I enjoyed doing “Circles” so much that I thought I’d just
go on and do as many Nonpoint songs (that aren’t tabbed correctly) as I could.
So here’s another great song on Development.  Enjoy!
Check out my "Circles" and "Get Inside" tabs.  "Your signs" should be up next!

Opening / Main Riff
E--------*---------------------|
B--------*|--------------------|
G--------*|--------------------|
D-2222---*|---------------2----|
A-2222---*|-3h5-3p0-6p0-3-2----|
D-2222---*|--------------------|
*Play four times
h=hammer-on
p=pull-off
[ Tab from: http://www.guitartabs.cc/tabs/n/nonpoint/my_own_sake_tab.html ]
Verse
E-----------------------------------|
B-----------------------------------|
G-----------------------------------|
D-0--3b—r --------------------------|
A----------2-----30203010--00--0-0--|
D----------------30203010--00--0-0--|
B=bend one full note
R=release bend

Pre-Chorus
E--------------------------------------------|
B--------------------------------------------|
G--------------------------------------------|
D------2--2-4--4--5-5-0h2-0h2----------------|
A--------------------------------------------|
D-0-0----------------------------------------|

Chorus
E--------------------------------0-0--|
B--------------------------------0-0--|
G-------------------------------------|
D-------------------------------------|
A-222--22--555--55--444--44-22--------|
D-222--22--555--55--444--44-22--------|
Bridge

E-------------|
B-------------|
G-------------|
D-2222--------|
A-2222--------|
D-2222--------|

E-------------|--------------|
B-------------|--------------|
G-------------|---------9----|
D-2222--555553|--2222---7----|
A-2222--555553|--2222--------|
D-2222--555553|--2222--------|
Comments