Nonpoint - Excessive Reaction Chords & Tabs

 

Excessive Reaction Chords & Tabs

Nonpoint Chords & Tabs

Version: 1 Type: Tab 0 ratings
1 star 2 stars 3 stars 4 stars 5 stars
comments

Excessive Reaction Tab

   
Band- Nonpoint
Song- Excessive Reaction

Tuning: Drop C (CGCFAD)

Key:

X = mute
B = bend
H = hammer-on
P = pull off
/ = slide up
\ = slide down


intro/chorus/verse1:
-----------------------------------------|-----|------------------------------|
-----------------------------------------|-----|------------------------------|
-----------14-14-14-----------14-14-14---|-----|------------------------------|
-0h10h12-x--x--x--x-0h10h12-x--x--x--x---|-x-3-|-0-8-8-8-8--0-5-5-5-5---------|
-0h10h12-x-12-12-12-0h10h12-x-12-12-12---|-----|-0-8-8-8-8--0-5-5-5-5---------|
-0h10h12-x----------0h10h12-x------------|-----|-0-8-8-8-8--0-5-5-5-5---------|


verse2: a pick slide is thrown in here sometimes
------------------------------------------------------------------------------|
------------------------------------------------------------------------------|
--------10----10-10-9---------------------------------------------------------|
--0-8-0--x-----x--x-x---------------------------------------------------------|
--0-8-0--8-----8--8-7---------------------------------------------------------|
--0-8-0-----------------------------------------------------------------------|

[ Tab from: http://www.guitartabs.cc/tabs/n/nonpoint/excessive_reaction_tab.html ]
pre-solo:
------------------------------------------------------------------------------|
------------------------------------------------------------------------------|
------------------------------------------------------------------------------|
-0-8-0-12h13p12-0-7-----------------------------------------------------------|
-0-8-0-12h13p12-0-7-----------------------------------------------------------|
-0-8-0-12h13p12-0-7-----------------------------------------------------------|


solo: with wah  (I'll finish it soon)
----------------------------------------17-----17------17---------------------|
---------------------------------16/17------17------15------------------------|
------14b-14b--12h14----------------------------------------------------------|
-x-x-----------------12h14----------------------------------------------------|
-x-x-----------------------12-------------------------------------------------|
-x-x--------------------------------------------------------------------------|


post solo:
------------------------------------------------------------------------------|
------------------------------------------------------------------------------|
------------------------------------------------------------------------------|
-10h12-12-12-12---0h10h12-12-12-12--------------------------------------------|
-10h12-12-12-12---0h10h12-12-12-12--------------------------------------------|
-10h12-12-12-12---0h10h12-12-12-12--------------------------------------------|


ending repeat the end a bunch and end on 0:
-----------------------------------------|-----|------------------------------|
-----------------------------------------|-----|------------------------------|
-----------14-14-14-----------14-14-14---|-----|------------------------------|
-0h10h12-x--x--x--x-0h10h12-x--x--x--x---|-x-3-|-0-8-8-8-8--0-5-5-5-5---------|
-0h10h12-x-12-12-12-0h10h12-x-12-12-12---|-----|-0-8-8-8-8--0-5-5-5-5---------|
-0h10h12-x----------0h10h12-x------------|-----|-0-8-8-8-8--0-5-5-5-5---------|
Comments