Nonpoint - Endure Chords & Tabs

 

Endure Chords & Tabs

Nonpoint Chords & Tabs

Version: 2 Type: Bass Tab 0 ratings
1 star 2 stars 3 stars 4 stars 5 stars
comments

Endure Bass Tab

   
Artist: Nonpoint
Song: Endure
Album: Statement
Tabber: NoFace
Instrument type: Bass
My E mail: linkin_crawling@hotmail.com
Intro(00:10)
F|------------x4
C|------------
G|------------
C|0--3--5--7--

F|------x6
C|------
G|------
C|5-3-0-

short rest

Verse (even with the diagram with my DNA)00:25
F|----------------------------------------------------
C|----------------------------------------------------
G|----------------------------------------------------
C|0--7--8--10--0--7--8--10--0--7--8--13--0--7--8--13--

F|------------------------------------------------
C|------------------------------------------------
G|------------------------------------------------
C|0--3--5--7--0--3--5--7--0--3--5--7--0--3--5--7--

Put down the books pu up the walls (00:45)
F|--------------
C|--------------x4
G|5555---3333---
C|-----5------5-

F|--------------
C|--------------x4
G|5555---3333-5-
C|-----5--------

ENDURE
F|------
C|------
G|------x6
C|5-3-0-
[ Tab from: http://www.guitartabs.cc/tabs/n/nonpoint/endure_btab_ver_2.html ]
Verse 2 (not even with ten man holding me back) 1:10
F|----------------------------------------------------
C|----------------------------------------------------
G|-----------------------------7--8--10-----7--8--10--
C|0--7--8--10--0--7--8--10--0------------0------------

F|------------------------------------------------
C|------------------------------------------------
G|------------------------------------------------
C|0--3--5--7--0--3--5--7--0--3--5--7--0--3--5--7--

Chorus (put down the books put on the walls)1:30
F|--------------
C|--------------x4
G|5555---3333---
C|-----5------5-

F|--------------
C|--------------x4
G|5555---3333-5-
C|-----5--------

F|------x6
C|------
G|------
C|5-3-0-

Rest for a second (this part is not very well easy.. its very hurt my hand!)

F|------
C|------x48
G|------
C|5-3-0-

Rest for 5 seconds 

Bridge(2:31)
F|-----------------------------------------------
C|-----------------------------------------------x1
G|------------------------2-2-2-2-2-2-2-2-2-2-2-2
C|0-0-0-0-0-0-0-0-0-0-0-0------------------------

F|------
C|------x31
G|------
C|5-3-0-

F|------------
C|------------x1
G|------------
C|5---3---0---
Comments