Nonpoint - Endure Chords & Tabs

 

Endure Chords & Tabs

Nonpoint Chords & Tabs

Version: 1 Type: Bass Tab 0 ratings
1 star 2 stars 3 stars 4 stars 5 stars
comments

Endure Bass Tab

   
Band:    Nonpoint
Song:    Endure
Tabber:  Jimmy Fats 69
Tuning: C,G,C,F

I got a lot of requests for this song, so I tabbed it.  Listen to the song for
the exact timing.  Please comment!

Intro(00:10)
F|------------x4
C|------------
G|------------
C|0--3--5--7--

F|------x6
C|------
G|------
C|5-3-0-

short rest

Verse(00:25)
F|----------------------------------------------------
C|----------------------------------------------------
G|-----------------------------7--8--10-----7--8--10--
C|0--7--8--10--0--7--8--10--0------------0------------

F|------------------------------------------------
C|------------------------------------------------
G|------------------------------------------------
C|0--3--5--7--0--3--5--7--0--3--5--7--0--3--5--7--

Chorus (00:45)
F|--------------
C|--------------x4
G|5555---3333---
C|-----5------5-

F|--------------
C|--------------x4
G|5555---3333-5-
C|-----5--------

F|------
C|------
G|------x6
C|5-3-0-
[ Tab from: http://www.guitartabs.cc/tabs/n/nonpoint/endure_btab.html ]
Verse 2 (1:10)
F|----------------------------------------------------
C|----------------------------------------------------
G|-----------------------------7--8--10-----7--8--10--
C|0--7--8--10--0--7--8--10--0------------0------------

F|------------------------------------------------
C|------------------------------------------------
G|------------------------------------------------
C|0--3--5--7--0--3--5--7--0--3--5--7--0--3--5--7--

Chorus(1:30)
F|--------------
C|--------------x4
G|5555---3333---
C|-----5------5-

F|--------------
C|--------------x4
G|5555---3333-5-
C|-----5--------

F|------x6
C|------
G|------
C|5-3-0-

Rest for a second

F|------
C|------x48
G|------
C|5-3-0-

Rest for 5 seconds 

Bridge(2:31)
F|--------------------------------
C|--------------------------------x1
G|--------------------------------
C|0-0-0-0-0-0-0-0-0-0-0-0-0-0-0-0-

F|------
C|------x31
G|------
C|5-3-0-

F|------------
C|------------x1
G|------------
C|5---3---0---


Comments, Questions, Mistakes:  MADdog9997@aol.com

Comments