None The Wiser - Happy Place Chords & Tabs

 

Happy Place Chords & Tabs

None The Wiser Chords & Tabs

Version: 1 Type: Tab 0 ratings
1 star 2 stars 3 stars 4 stars 5 stars
comments

Happy Place Tab

   
-------------------------------------------------------------------------------
			     Happy Place - None the Wiser
-------------------------------------------------------------------------------
Tabbed by: Elliott
Email: stiflersez@aol.com

Tuning: Standard

Intro:
e|--9h10h9h-------------------------------------9h10h9h----------------------|
B|---------10----10--10--10h11h10----10--10--10---------10----10--10h11h10---|
G|---------------------------------------------------------------------------|
D|---------------------------------------------------------------------------|
A|---------------------------------------------------------------------------|
E|---------------------------------------------------------------------------|

e|--9h10h9h-------------------------------------9h10h9h----------------------|
B|---------10----10--10--10h11h10----10--10--10---------10----10--10h9h10----|
G|---------------------------------------------------------------------------|
D|---------------------------------------------------------------------------|
A|---------------------------------------------------------------------------|
E|---------------------------------------------------------------------------|

Verse:
e|---------------------------------------------------------------------------|
B|---------------------------------------------------------------------------|
G|----------------9--x--x--7--x--0-------------------------------------------|
D|--9--x--x--x----9--x--x--7--x--0----7--x--9--x--x--x-------x10-------------|
A|--9--x--x--x----7--x--x--5--x--0----7--x--9--x--x--x-----------------------|
E|--7--x--x--x------------------------5--x--7--x--x--x-----------------------|

Chorus: (Repeatedly stum each chord)
e|---------------------------------------------------------------------------|
B|---------------------------------------------------------------------------|
G|---------7----5------------------------------------------------------------|
D|----7----7----5----5----7--------------------------------------------------|
A|----7----5----3----5----7--------------------------------------------------|
E|----5--------------3----5--------------------------------------------------|
[ Tab from: http://www.guitartabs.cc/tabs/n/none_the_wiser/happy_place_tab.html ]
Bridge:
e|--9h10----9h10----9h10----9------------------------------------------------|
B|----------------------------10--10--10h9-----------x8----------------------|
G|---------------------------------------------------------------------------|
D|---------------------------------------------------------------------------|
A|---------------------------------------------------------------------------|
E|---------------------------------------------------------------------------|

       Palm mute and strum each note:
e|---------------------------------------------------------------------------|
B|---------------------------------------------------------------------------|
G|---------------------------------------------------------------------------|
D|--7----9--------x2---------------------------------------------------------|
A|--7----9-------------------------------------------------------------------|
E|--5----7-------------------------------------------------------------------|

Repeat Chorus

Outro:
e|---------------------------------------------------------------------------|
B|---------------------------------------------------------------------------|
G|----------------9--x--x--7--x--0-------------------------------------------|
D|--9--x--x--x----9--x--x--7--x--0----7--x--9--x--x--x-------x3--------------|
A|--9--x--x--x----7--x--x--5--x--0----7--x--9--x--x--x-----------------------|
E|--7--x--x--x------------------------5--x--7--x--x--x-----------------------|


e|---------------------------------------------------------------------------|
B|---------------------------------------------------------------------------|
G|----------------9--x--x--7--x--0-------------------------------------------|
D|--9--x--x--x----9--x--x--7--x--0----7--x--9----------------x1--------------|
A|--9--x--x--x----7--x--x--5--x--0----7--x--9--------------------------------|
E|--7--x--x--x------------------------5--x--7--------------------------------|

Lyrics:

So this is all very new and strange to me,
but yet it seems that I've been here before,
People keep askin' but I'm not tellin' why,
I'm never around anymore.
It seems that solitude's caught up to me,
I look around and no one's there,
So I guess I'm stuck here for a while,
And I'm all alone but I just don't care.

Chorus:
'Cause I never wanna leave this place,
It's become a part of me,
This place inside of me,
Where I once went to be set free...

So I sat in my bedroom for and hour,
Nothin' but me and my guitar,
Writtin' songs and playin' and wonderin',
How in the hell did I get this far?
Flippin' the coin inside my head, 
On one side's my life and the other: shit,
Fightin' the demon in my mind,
'Cause I know in the end I'll conquer it.

Chorus Repeat

I'm never around anymore        x8

Chorus Repeat


| /  slide up
| \  slide down
| h  hammer-on
| p  pull-off
| ~  vibrato
| +  harmonic
| x  Mute note
===============================================================================
Comments