None More Black - Oh Theres Legwork Chords & Tabs

 

Oh Theres Legwork Chords & Tabs

None More Black Chords & Tabs

Version: 1 Type: Tab 0 ratings
1 star 2 stars 3 stars 4 stars 5 stars
comments

Oh Theres Legwork Tab

Tabbed by hand, by BK.

I play along to this song and it sounds perfect to me so...
Listen along for the rythms.
Cheers.


Intro Riff

e|----------------------------------|
B|-4h5555-4h5555-4h5555-222-000-----|
G|----------------------------------|
D|----------------------------------|
A|----------------------------------|
E|----------------------------------|

Intro Rythem Guitar Part
(Comes in after the second time the intro riff is played)

e|-----------|-----------|-----------|-----------|----------|
B|-----------|-----------|-----------|-----------|----------|
G|---6-------|---6-------|-----------|---6-------|----------|
D|2--6--6--7-|2--6--6--7-|2--6--4--7-|2--6--6--7-|9---------|
A|2--4--6--7-|2--4--6--7-|2--6--4--7-|2--4--6--7-|9---------|
E|0-----4--5-|0-----4--5-|0--4--2--5-|0-----4--5-|7---------|


Verse
[ Tab from: http://www.guitartabs.cc/tabs/n/none_more_black/oh_theres_legwork_tab.html ]
e|-------------|------------|-----------------------|-------------|
B|-------------|------------|-----------------------|-------------|
G|------6------|------6-----|-----------------------|------6------|
D|2--6--6--7---|2--6--6--7--|2--6--9--4--6-7-6-4-2--|2--6--6--7---|
A|2--6--4--7---|2--6--4--7--|2--6--9--4--6-7-6-4-2--|2--6--4--7---|
E|0--4-----5---|0--4-----5--|0--4--7--2--4-5-4-2-0--|0--4-----5---|

e|-------------|------------|-----------------------|-------------|
B|-------------|------------|-----------------------|-------------|
G|------6------|------6-----|-----------------------|-------------|
D|2--6--6--7---|2--6--6--7--|2--6--9--4--6-7-6-4-2--|2--------9---|
A|2--6--4--7---|2--6--4--7--|2--6--9--4--6-7-6-4-2--|2--------9---|
E|0--4-----5---|0--4-----5--|0--4--7--2--4-5-4-2-0--|0--------7---|


Chorus Riff ( \ = slide )

e|----------------------------------|
B|-555------------------------------|
G|----444\222\111-222-111-222\444---|
D|----------------------------------|
A|----------------------------------|
E|----------------------------------|


Chorus Rythem Guitar Part ( h = hammer on, p = pull)

e|--------------|
B|--------------|
G|--------------|
D|2---------7--9|
A|2-2h4p2h4-7--9|
E|0---------5--7|


Breakdown

e|-------------|------------|
B|-------------|------------|
G|-14-13-11--9-|-9----------|
D|-------------|-9--7--9--7-|
A|-12-11-9---7-|-7--7--9--7-|
E|-------------|----5--7--5-|
Comments