Nolan Funk - Untitled Chords & Tabs

 

Untitled Chords & Tabs

Nolan Funk Chords & Tabs

Version: 1 Type: Tab 0 ratings
1 star 2 stars 3 stars 4 stars 5 stars
comments

Untitled Tab

date: 12 03 04
tabber:nolan funk
intro to untitled

guitar 1
e----------------------------|
b----------------------------|
g----------------------------|
d-2-0-2--2-0-2-3-2-0---------|
a------3-------------3-0---0-|
e------------------------3---|

[ Tab from: http://www.guitartabs.cc/tabs/n/nolan_funk/untitled_tab.html ]
e----------------------------|
b----------------------------|
g----------------------------|
d-2-0-2--2-0-2-3-2-0---------|
a------3-------------3-0---0-|
e------------------------3---|


guitar 2
e--2-0-2-3-2-0----|
b-----------------|
g-----------------|
d-----------------|
a-----------------|
e-----------------|
[ repeat 6 times
Comments