Nolan Derek - Untitled Chords & Tabs

 

Untitled Chords & Tabs

Nolan Derek Chords & Tabs

Version: 1 Type: Tab 0 ratings
1 star 2 stars 3 stars 4 stars 5 stars
comments

Untitled Tab

Its my first tab so lay off.  I’ve only been playing around a year or so and I just got this beat in my head so it’s a song now.

E--------------------------------
B--------------------------------
G-------------------------------
D---3---2---5---3---2§3------
A-0---0---0---0---0-----------
G-------------------------------

E--------------------------------
B--------------------------------
G---3---2---5---3---2§3------
D-1---1---1---1---1-----------
A--------------------------------
G--------------------------------
[ Tab from: http://www.guitartabs.cc/tabs/n/nolan_derek/untitled_tab.html ]
E--------------------------------
B--------------------------------
G---3---2---5---3---2§3------
D-0---0---0---0---0-----------
A--------------------------------
G--------------------------------

E--------------------------------
B--------------------------------
G---3---2---5---3---2§3------
D-3---3---3---3---3-----------
A--------------------------------
G--------------------------------


Heres the Key, if you didn’t figure out the obvious:

§ = Slide






If you have any questions or comments or anything you’d care to add to my wonderful melody, email me at DerekNolan@usa.net

Comments